Song name
# A B C D E F G H I J K L M N O P Q R S T U V W X Y Z

Johnny Marr - The It-switch tab

The B-Side of 'New Town Velocity'

Standard Tuning

----------------------------------------------2---2p0-----------|
----2--4---0--2---4---0-------------------0---0-----0-----------|
----0--0-------0---0--------1--1----1---------------------------|
----------------------------------------------------------------|
----------------------------------------------------------------|
----------------------------------------------------------------|

------------------------------4--4--2--2------------------------|
-----2--4--0---2--4---0---5--5--4--4--2--0----------------------|
-----0--0-------0--0--------------------------------------------|
----------------------------------------------------------------|
----------------------------------------------------------------|
----------------------------------------------------------------|

----------------------------------------------2---2p0-----------|
----2--4---0--2---4---0-------------------0---0-----0-----------|
----0--0-------0---0--------1--1----1---------------------------|
----------------------------------------------------------------|
----------------------------------------------------------------|
----------------------------------------------------------------|


------------------------------4--4--2--5--4---------------------|
-----2--4--0---2--4---0---5--5--4--5--5-------------------------|
-----0--0-------0--0--------------------------------------------|
----------------------------------------------------------------|
----------------------------------------------------------------|
----------------------------------------------------------------|



Johnny taught me this in person in edinburgh on his own jag. Best day of my life :) enjoy
Tap to rate this tab
# A B C D E F G H I J K L M N O P Q R S T U V W X Y Z