Guitaretab - guitar tabs
Song name
# A B C D E F G H I J K L M N O P Q R S T U V W X Y Z

Johnny Panic - Hurt I See You Around tab

            Johnny Panic - Hurt (I See You Around)

Tuning: half step down

Intro

--------------------------------------|
--------------------------------------|
--------------------------------------|
----7--6--9--7--6h7----7--6--9--7-6-4-|
--------------------------------------|
--------------------------------------|


Lead
---------------------------------------------------|
--10-10-10--9-9-9------9-9-9--10-10-10--12-12-12---|
------------------9-9------------------------------|
---------------------------------------------------| X4
---------------------------------------------------|
---------------------------------------------------|

----------------------------------------------------------------------------|
-10-10-10--9-9-9-----9-9-9--10-10-10--12-12-12--10-10-10--9-9-9-7-7-7-9-7---|
-----------------9-9------------------------------------------------------9-|
----------------------------------------------------------------------------|
----------------------------------------------------------------------------|
----------------------------------------------------------------------------|

Rhythm

---------------------------------------------------------|
---------------------------------------------------------|
--6------------------------------------------------6-----|
--6--7-----7---6---9---7--6h7----7---6---9--7-6-4--6-7---|
--4--7---------------------------------------------4-7---|
-----5---xx-xx--xx--xx---------xx-xx--xx-------------5---|

Verse
---------------------------------------|
---------------------------------------|
---------------------------------------|
----7--6--9--7--6h7----7--6--9--7-6-4--|
---------------------------------------|
---------------------------------------|

---------------------------------------------------------|
---------------------------------------------------------|
--6------------------------------------------------6-----|
--6--7-----7---6---9---7--6h7----7---6---9--7-6-4--6-7---|
--4--7---------------------------------------------4-7---|
-----5---xx-xx--xx--xx---------xx-xx--xx-------------5---|

Chorus  x2

Lead
---------------------------------------------------|
--10-10-10--9-9-9------9-9-9--10-10-10--12-12-12---|
------------------9-9------------------------------|
---------------------------------------------------| X3
---------------------------------------------------|
---------------------------------------------------|
[ Tab from: http://www.guitaretab.com/j/johnny-panic/185744.html ]
-----------------------------------------------------------------------------|
-10-10-10--9-9-9-----9-9-9--10-10-10--12-12-12--10-10-10--9-9-9-7-7-7--9--7--|
-----------------9-9-------------------------------------------------------9-|
-----------------------------------------------------------------------------|
-----------------------------------------------------------------------------|
-----------------------------------------------------------------------------|

Rhythm

-------------------------------|
-------------------------------|
--9----------6-----------------|
--9--x32-----6--x16----7-------|
--7----------4---------7--x16--|
-----------------------5-------|

Repeat Verse

Repeat Chorus


Bridge

Rhythm
------------------|
------------------|
------------------|
--5-------9-------| x2
--5-x4----9-x8----|
--3-------7-------|

-----------------------|
-----------------------|
-----------------------|
--5-------9------7-----|
--5-x4----9-x8---7-x16-|
--3-------7------5-----|

------------------|
------------------|
------------------|
--5-------9-------| x2
--5-x4----9-x8----|
--3-------7-------|

----------------------------------------------|
----------------------------------------------|
----------------------------------------------|
--5-------9------10-----12--------99--99--99~-|
--5-x4----9-x8---10-x8--12--x8----99--99--99~-|
--3-------7------8------10--------77--77--77~-|


Lead

------------------|
------------------|
------------------|
--5-------9-------|
--5-x4----9-x8----|
--3-------7-------|

-------------------------|
-------------------------|
---7-7----11-11---9-9----|
---x-x-x4-x--x----x-x----|
---5-5----9--9----7-7----|
-------------------------|

-------------------------------------------|
-------------------------------------------|
--------------------------12-12-12--11--9--|
--5-------9------7--------xx-xx-xx--xx--x--|
--5-x4----9-x8---7-x8-----10-10-10--9---7--|
--3-------7------5-------------------------|

------------------|
------------------|
------------------|
--5-------9-------| x2
--5-x4----9-x8----|
--3-------7-------|

------------------------------------------------|
------------------------------------------------|
------------------------------------------------|
--5-------9------10-----12--------99--99--99~---|
--5-x4----9-x8---10-x8--12--x8----99--99--99~---|
--3-------7------8------10--------77--77--77~---|

Pre-Chorus

--------------------------------------|
--------------------------------------|
--------------------------------------|
----7--6--9--7--6h7----7--6--9--7-6-4-|
--------------------------------------|
--------------------------------------|

Just Lead Plays:

---------------------------------------------------|
--10-10-10--9-9-9------9-9-9--10-10-10--12-12-12---|
------------------9-9------------------------------|
---------------------------------------------------| X2
---------------------------------------------------|
---------------------------------------------------|


Then repeat chorus till the end

Keep Fighting The Good Fight
Related for Hurt I See You Around tab
Advertisement will be closed in 10 seconds