Song name
# A B C D E F G H I J K L M N O P Q R S T U V W X Y Z

Johnny Panic - Burn Your Youth tab

Artist : Johnny Panic
Song   : Burn Your Youth
Single : Burn Your Youth
Track  : 1


Hey! I realised I'd tabbed the palm-muting in the wrong place, so I re-did it,
and here it is...

Standard Tuning


All (Guitars 1 & 2)

E|-------------------------------------------------------------------|
B|-------------------------------------------------------------------|
G|-5-5-5-5--10-8-----------------8-8--x--8--10--10-10-10-10-10-10-10-|
D|-5-5-5-5--10-8--5-5-5-5--10-8--8-8--x--8--10--10-10-10-10-10-10-10-|
A|-3-3-3-3---8-6--5-5-5-5--10-8--6-6--x--6---8---8--8--8--8--8--8--8-|
E|----------------3-3-3-3---8-6--------------------------------------|


Guitar 1

E|-------------------------------------------------------------------|
B|-------------------------------------------------------------------|
G|-5-5-5-5--10-8-----------------8-8--x--8--10--10-10-10-10-10-10-10-|
D|-5-5-5-5--10-8--5-5-5-5--10-8--8-8--x--8--10--10-10-10-10-10-10-10-|
A|-3-3-3-3---8-6--5-5-5-5--10-8--6-6--x--6---8---8--8--8--8--8--8--8-|
E|----------------3-3-3-3---8-6--------------------------------------|



Guitar 2

E|-------------------------------------------------------------------|
B|-------------------------------------------------------------------|
G|-------------------------------------------7---7--7--7--7--7--7--7-|
D|-------------------------------------------------------------------|
A|-------------------------------------------5---5--5--5--5--5--5--5-|
E|-------------------------------------------------------------------|



All


E|------------------------------------------------------------------------|
B|------------------------------------------------------------------------|
G|-5-5-5-5-5-5-5-5-----------------8-8-8-8-8-8-8--10-10-10-10-10-10-10-10-|
D|-5-5-5-5-5-5-5-5-5-5-5-5-5-5-5-5-8-8-8-8-8-8-8--10-10-10-10-10-10-10-10-|     x2
A|-3-3-3-3-3-3-3-3-5-5-5-5-5-5-5-5-6-6-6-6-6-6-6---8--8--8--8--8--8--8--8-|
E|-----------------3-3-3-3-3-3-3-3----------------------------------------|

  [~ ~ ~ ~ ~]     [~ ~ ~ ~ ~]       [~ ~] [~ ~]  [~~ ~~]                  palm mute


E|------------------------------------------------------------------------|
B|------------------------------------------------------------------------|
G|-5-5-5-5-5-5-5-5-----------------8-8-8-8-8-8-8--10-10-10-10-10-10-10-10-|
D|-5-5-5-5-5-5-5-5-5-5-5-5-5-5-5-5-8-8-8-8-8-8-8--10-10-10-10-10-10-10-10-|     x2
A|-3-3-3-3-3-3-3-3-5-5-5-5-5-5-5-5-6-6-6-6-6-6-6---8--8--8--8--8--8--8--8-|
E|-----------------3-3-3-3-3-3-3-3----------------------------------------|

  [~ ~ ~ ~ ~ ~ ~ ~ ~ ~ ~ ~ ~ ~ ~ ~] [~ ~] [~ ~]  [~~ ~~]                  palm mute


E|-------------------------------------------------------------------------------|
B|-------------------------------------------------------------------------------|
G|-5--5--5--5--5--5--------------------------------------------------------------|
D|-5--5--5--5--5--5--8-8-8-8-5--5--5--5--5--5--8-8-8-8-6--6--6--6--6--6--8-8-8-8-|
A|-3--3--3--3--3--3--8-8-8-8-5--5--5--5--5--5--8-8-8-8-6--6--6--6--6--6--8-8-8-8-|
E|-------------------6-6-6-6-3--3--3--3--3--3--6-6-6-6-4--4--4--4--4--4--6-6-6-6-|

E|---------------------------------|
B|---------------------------------|
G|-----------------7-7-7-7-7-7-7-7-|
D|-5-5-5-5-5-5-5-5-7-7-7-7-7-7-7-7-|
A|-5-5-5-5-5-5-5-5-5-5-5-5-5-5-5-5-|
E|-3-3-3-3-3-3-3-3-----------------|

  [~ ~ ~ ~ ~ ~ ~ ~ ~ ~ ~ ~ ~ ~ ~ ~]     palm mute


E|--------------------------------------------------------------|
B|--------------------------------------------------------------|
G|-8-8-8-8-8-8-8-8-8-8-8-8-8-8-8--------------------------------|
D|-8-8-8-8-8-8-8-8-8-8-8-8-8-8-8-8--8-8-8-8-8-8-8-8-8-8-8-8-8-9-|
A|-6-6-6-6-6-6-6-6-6-6-6-6-6-6-6-8--8-8-8-8-8-8-8-8-8-8-8-8-8-9-|
E|-------------------------------6--6-6-6-6-6-6-6-6-6-6-6-6-6-7-|

E|-----------------------------------------------------------------------------|
B|-----------------------------------------------------------------------------|
G|-----------------------------------------------------------------------------|
D|-10-10-10-10-10-10-10-10-10-10-10-10-10-10--8--6-6-6-6-6-6-6-6-6-6-6-6-6-6-8-|
A|-10-10-10-10-10-10-10-10-10-10-10-10-10-10--8--6-6-6-6-6-6-6-6-6-6-6-6-6-6-8-|
E|--8--8--8--8--8--8--8--8--8--8--8--8--8--8--6--4-4-4-4-4-4-4-4-4-4-4-4-4-4-6-|


E|--------------------------------------------------------------|
B|--------------------------------------------------------------|
G|-8-8-8-8-8-8-8-8-8-8-8-8-8-8-8--------------------------------|
D|-8-8-8-8-8-8-8-8-8-8-8-8-8-8-8-8--8-8-8-8-8-8-8-8-8-8-8-8-8-9-|
A|-6-6-6-6-6-6-6-6-6-6-6-6-6-6-6-8--8-8-8-8-8-8-8-8-8-8-8-8-8-9-|
E|-------------------------------6--6-6-6-6-6-6-6-6-6-6-6-6-6-7-|

E|-------------------------------------------------------------------------------|
B|-------------------------------------------------------------------------------|
G|-------------------------------------------------------------------------------|
D|-10-10-10-10-10-10-10-10-10-10-10-10-10-10--8--6-6-6-6-6-6-6-6-6-6-6-6-6-6-8-6-|
A|-10-10-10-10-10-10-10-10-10-10-10-10-10-10--8--6-6-6-6-6-6-6-6-6-6-6-6-6-6-8-6-|
E|--8--8--8--8--8--8--8--8--8--8--8--8--8--8--6--4-4-4-4-4-4-4-4-4-4-4-4-4-4-6-6-|

E|-----------------------------------------------------------|
B|-----------------------------------------------------------|
G|-----------------------------------------------------------|
D|-6--6-6-6-6-5-5-6-6-6-6-6-6-5-5-6-6-6-6-6-6-5-5-6-6-6-6-6--|
A|-6--6-6-6-6-5-5-6-6-6-6-6-6-5-5-6-6-6-6-6-6-5-5-6-6-6-6-6--|
E|-4--4-4-4-4-3-3-4-4-4-4-4-4-3-3-4-4-4-4-4-4-3-3-4-4-4-4-4--|


E|------------------------------------------------------------------------|
B|------------------------------------------------------------------------|
G|-5-5-5-5-5-5-5-5-----------------8-8-8-8-8-8-8--10-10-10-10-10-10-10-10-|
D|-5-5-5-5-5-5-5-5-5-5-5-5-5-5-5-5-8-8-8-8-8-8-8--10-10-10-10-10-10-10-10-|     x2
A|-3-3-3-3-3-3-3-3-5-5-5-5-5-5-5-5-6-6-6-6-6-6-6---8--8--8--8--8--8--8--8-|
E|-----------------3-3-3-3-3-3-3-3----------------------------------------|

  [~ ~ ~ ~ ~]     [~ ~ ~ ~ ~]       [~ ~] [~ ~]  [~~ ~~]                  palm mute


E|------------------------------------------------------------------------|
B|------------------------------------------------------------------------|
G|-5-5-5-5-5-5-5-5-----------------8-8-8-8-8-8-8--10-10-10-10-10-10-10-10-|
D|-5-5-5-5-5-5-5-5-5-5-5-5-5-5-5-5-8-8-8-8-8-8-8--10-10-10-10-10-10-10-10-|     x2
A|-3-3-3-3-3-3-3-3-5-5-5-5-5-5-5-5-6-6-6-6-6-6-6---8--8--8--8--8--8--8--8-|
E|-----------------3-3-3-3-3-3-3-3----------------------------------------|

  [~ ~ ~ ~ ~ ~ ~ ~ ~ ~ ~ ~ ~ ~ ~ ~] [~ ~] [~ ~]  [~~ ~~]                  palm mute


E|-------------------------------------------------------------------------------|
B|-------------------------------------------------------------------------------|
G|-5--5--5--5--5--5--------------------------------------------------------------|
D|-5--5--5--5--5--5--8-8-8-8-5--5--5--5--5--5--8-8-8-8-6--6--6--6--6--6--8-8-8-8-|
A|-3--3--3--3--3--3--8-8-8-8-5--5--5--5--5--5--8-8-8-8-6--6--6--6--6--6--8-8-8-8-|
E|-------------------6-6-6-6-3--3--3--3--3--3--6-6-6-6-4--4--4--4--4--4--6-6-6-6-|

E|---------------------------------|
B|---------------------------------|
G|-----------------7-7-7-7-7-7-7-7-|
D|-5-5-5-5-5-5-5-5-7-7-7-7-7-7-7-7-|
A|-5-5-5-5-5-5-5-5-5-5-5-5-5-5-5-5-|
E|-3-3-3-3-3-3-3-3-----------------|

  [~ ~ ~ ~ ~ ~ ~ ~ ~ ~ ~ ~ ~ ~ ~ ~]     palm mute


E|--------------------------------------------------------------|
B|--------------------------------------------------------------|
G|-8-8-8-8-8-8-8-8-8-8-8-8-8-8-8--------------------------------|
D|-8-8-8-8-8-8-8-8-8-8-8-8-8-8-8-8--8-8-8-8-8-8-8-8-8-8-8-8-8-9-|
A|-6-6-6-6-6-6-6-6-6-6-6-6-6-6-6-8--8-8-8-8-8-8-8-8-8-8-8-8-8-9-|
E|-------------------------------6--6-6-6-6-6-6-6-6-6-6-6-6-6-7-|

E|-----------------------------------------------------------------------------|
B|-----------------------------------------------------------------------------|
G|-----------------------------------------------------------------------------|
D|-10-10-10-10-10-10-10-10-10-10-10-10-10-10--8--6-6-6-6-6-6-6-6-6-6-6-6-6-6-8-|
A|-10-10-10-10-10-10-10-10-10-10-10-10-10-10--8--6-6-6-6-6-6-6-6-6-6-6-6-6-6-8-|
E|--8--8--8--8--8--8--8--8--8--8--8--8--8--8--6--4-4-4-4-4-4-4-4-4-4-4-4-4-4-6-|


E|--------------------------------------------------------------|
B|--------------------------------------------------------------|
G|-8-8-8-8-8-8-8-8-8-8-8-8-8-8-8--------------------------------|
D|-8-8-8-8-8-8-8-8-8-8-8-8-8-8-8-8--8-8-8-8-8-8-8-8-8-8-8-8-8-9-|
A|-6-6-6-6-6-6-6-6-6-6-6-6-6-6-6-8--8-8-8-8-8-8-8-8-8-8-8-8-8-9-|
E|-------------------------------6--6-6-6-6-6-6-6-6-6-6-6-6-6-7-|

E|-------------------------------------------------------------------------------|
B|-------------------------------------------------------------------------------|
G|-------------------------------------------------------------------------------|
D|-10-10-10-10-10-10-10-10-10-10-10-10-10-10--8--6-6-6-6-6-6-6-6-6-6-6-6-6-6-8-6-|
A|-10-10-10-10-10-10-10-10-10-10-10-10-10-10--8--6-6-6-6-6-6-6-6-6-6-6-6-6-6-8-6-|
E|--8--8--8--8--8--8--8--8--8--8--8--8--8--8--6--4-4-4-4-4-4-4-4-4-4-4-4-4-4-6-6-|

E|-----------------------------------------------------------|
B|-----------------------------------------------------------|
G|-----------------------------------------------------------|
D|-6--6-6-6-6-5-5-6-6-6-6-6-6-5-5-6-6-6-6-6-6-5-5-6-6-6-6-6--|
A|-6--6-6-6-6-5-5-6-6-6-6-6-6-5-5-6-6-6-6-6-6-5-5-6-6-6-6-6--|
E|-4--4-4-4-4-3-3-4-4-4-4-4-4-3-3-4-4-4-4-4-4-3-3-4-4-4-4-4--|



Guitar 1

E|-----------------------------------------------------------------|
B|-----------------------------------------------------------------|
G|-8-8-8-8-8-8-8-8-8-8-8-8-8-8-8-8---------------------------------|
D|-8-8-8-8-8-8-8-8-8-8-8-8-8-8-8-8-8-8-8-8-8-8-8-8-8-8-8-8-8-8-8-8-|
A|-6-6-6-6-6-6-6-6-6-6-6-6-6-6-6-6-8-8-8-8-8-8-8-8-8-8-8-8-8-8-8-8-|
E|---------------------------------6-6-6-6-6-6-6-6-6-6-6-6-6-6-6-6-|

  [~ ~ ~ ~ ~ ~ ~ ~ ~ ~ ~ ~ ~ ~ ~ ~ ~ ~ ~ ~ ~ ~ ~ ~ ~ ~ ~ ~ ~ ~ ~ ~]     palm mute


E|-----------------------------------------------------------------------------|
B|-----------------------------------------------------------------------------|
G|-----------------------------------------------------------------------------|
D|-10-10-10-10-10-10-10-10-10-10-10-10-10-10-10-10-6-6-6-6-6-6-6-6-6-6-6-6-6-6-|
A|-10-10-10-10-10-10-10-10-10-10-10-10-10-10-10-10-6-6-6-6-6-6-6-6-6-6-6-6-6-6-|
E|--8--8--8--8--8--8--8--8--8--8--8--8--8--8--8--8-4-4-4-4-4-4-4-4-4-4-4-4-4-4-|

  [~ ~ ~ ~ ~ ~ ~ ~ ~ ~ ~ ~ ~ ~ ~ ~ ~ ~ ~ ~ ~ ~ ~ ~]     palm mute



Guitar 2

E|-----------------------------------------------------------------|
B|-----------------------------------------------------------------|
G|----7-7---8--------7-8-7-------------7-7--8-10-------------7-8-7-|
D|-----------------------------------------------------------------|
A|-----------------------------------------------------------------|
E|-----------------------------------------------------------------|
                                                            [~ ~ ~] slight palm mute
     [~ ~   ~        ~ ~ ~             ~ ~    ~~] palm mute

E|-----------------------------------------------------------------------------|
B|-----------------------------------------------------------------------------|
G|--7-7-7-7-7-7h8-----7h8p7------------7-7-7-7-7h8-----------------------------|
D|-----------------8-------------------------------8-8-8-8-8-8-8-8-8-8-8-8-8-8-|
A|-----------------------------------------------------------------------------|
E|-----------------------------------------------------------------------------|

   [~ ~] palm mute



Guitar 1

E|----------------------------------------------------------------------------------|
B|----------------------------------------------------------------------------------|
G|--8--8--8--8--8--8--8--8----------------------------------------------------------|
D|--8--8--8--8--8--8--8--8--8--8--8--8--8--8--8--8--10--10--10--10--10--10--10--10--|
A|--6--6--6--6--6--6--6--6--8--8--8--8--8--8--8--8--10--10--10--10--10--10--10--10--|
E|--------------------------6--6--6--6--6--6--6--6---8---8---8---8---8---8---8---8--|

E|-----------------|
B|-----------------|
G|-----------------|
D|-6-6-6-6-6-6-6-6-|
A|-6-6-6-6-6-6-6-6-|
E|-4-4-4-4-4-4-4-4-|


Guitar 2

E|--------------------------------------------------------------------------------|
B|--------------------------------------------------------------------------------|
G|-8-8-8-8-8-8-8-8-8-8-8/10/12----10-10-10-10-10-10-10-10-10-10-10-10-13-13-13-13-|
D|--------------------------------------------------------------------------------|
A|--------------------------------------------------------------------------------|
E|--------------------------------------------------------------------------------|

E|--------------------------------------------------------------------------------------------|
B|--------------------------------------------------------------------------------13-13-13-13-|
G|-12-12-12-12-12-12-12-12-12-12-12-12-15-15-15-15-13-13-13-13-13-13-13-13--------------------|
D|--------------------------------------------------------------------------------------------|
A|--------------------------------------------------------------------------------------------|
E|--------------------------------------------------------------------------------------------|



All

E|--------------------------------------------------------------|
B|--------------------------------------------------------------|
G|-8-8-8-8-8-8-8-8-8-8-8-8-8-8-8--------------------------------|
D|-8-8-8-8-8-8-8-8-8-8-8-8-8-8-8-8--8-8-8-8-8-8-8-8-8-8-8-8-8-9-|
A|-6-6-6-6-6-6-6-6-6-6-6-6-6-6-6-8--8-8-8-8-8-8-8-8-8-8-8-8-8-9-|
E|-------------------------------6--6-6-6-6-6-6-6-6-6-6-6-6-6-7-|

E|-------------------------------------------------------------------------------|
B|-------------------------------------------------------------------------------|
G|-------------------------------------------------------------------------------|
D|-10-10-10-10-10-10-10-10-10-10-10-10-10-10--8--6-6-6-6-6-6-6-6-6-6-6-6-6-6-8-6-|
A|-10-10-10-10-10-10-10-10-10-10-10-10-10-10--8--6-6-6-6-6-6-6-6-6-6-6-6-6-6-8-6-|
E|--8--8--8--8--8--8--8--8--8--8--8--8--8--8--6--4-4-4-4-4-4-4-4-4-4-4-4-4-4-6-6-|

E|--------------------------------------------------------------|
B|--------------------------------------------------------------|
G|-8-8-8-8-8-8-8-8-8-8-8-8-8-8-8--------------------------------|
D|-8-8-8-8-8-8-8-8-8-8-8-8-8-8-8-8--8-8-8-8-8-8-8-8-8-8-8-8-8-9-|
A|-6-6-6-6-6-6-6-6-6-6-6-6-6-6-6-8--8-8-8-8-8-8-8-8-8-8-8-8-8-9-|
E|-------------------------------6--6-6-6-6-6-6-6-6-6-6-6-6-6-7-|

E|-----------------------------------------------------------------------------|
B|-----------------------------------------------------------------------------|
G|-----------------------------------------------------------------------------|
D|-10-10-10-10-10-10-10-10-10-10-10-10-10-10--8--6-6-6-6-6-6-6-6-6-6-6-6-6-6-8-|
A|-10-10-10-10-10-10-10-10-10-10-10-10-10-10--8--6-6-6-6-6-6-6-6-6-6-6-6-6-6-8-|
E|--8--8--8--8--8--8--8--8--8--8--8--8--8--8--6--4-4-4-4-4-4-4-4-4-4-4-4-4-4-6-|


Guitar 1

E|--------------------------------------------------------------|
B|--------------------------------------------------------------|
G|-8-8-8-8-8-8-8-8-8-8-8-8-8-8-8--------------------------------|
D|-8-8-8-8-8-8-8-8-8-8-8-8-8-8-8-8--8-8-8-8-8-8-8-8-8-8-8-8-8-9-|
A|-6-6-6-6-6-6-6-6-6-6-6-6-6-6-6-8--8-8-8-8-8-8-8-8-8-8-8-8-8-9-|
E|-------------------------------6--6-6-6-6-6-6-6-6-6-6-6-6-6-7-|

E|--------------------------------------------------------------------------------|
B|--------------------------------------------------------------------------------|
G|--------------------------------------------------------------------------------|
D|-10--10-10-10-10-10-10-10-10-10-10-10-10-10--8--6-6-6-6-6-6-6-6-6-6-6-6-6-6-8-6-|
A|-10--10-10-10-10-10-10-10-10-10-10-10-10-10--8--6-6-6-6-6-6-6-6-6-6-6-6-6-6-8-6-|
E|--8---8--8--8--8--8--8--8--8--8--8--8--8--8--6--4-4-4-4-4-4-4-4-4-4-4-4-4-4-6-6-|
   fade...

Guitar 2

E|---------------------------------------------------------------------------------------------|
B|----11-------------11----------11--------------------11---------------11---------------------|
G|-8-----10--8h10--8-----8h10-7-----10--7-10--7---8-------10----------------8-8--8-8-8-8/10-10-|
D|--------------------------------------------------10--------10-10--10------------------------|
A|---------------------------------------------------------------------------------------------|
E|---------------------------------------------------------------------------------------------|
                         fade...

E|-----------------|
B|-8-8-8-8-8-8-8-8-|
G|-----------------|
D|-----------------|
A|-----------------|
E|-----------------|

  fade...



Lyrics:

Wrapped up sitting in your box for life
would you notice if I even read you your rights?
Education, educate but don't you try
cause one false move they'll have you back in line.

We bide our time wear our disguise, know how to complicate us, intimidate us.

Burn your youth away cause there's nothing past today and if I can't change it,
you won't change it, we'll never make it
Burn your youth away cause there's nothing past today and if I can't change it,
you won't change it, we'll never make it.

Shut down living in a poverty of truth.
I opened my newspaper and there was the proof.
Those damn celebrities hide the issues in my life,
this democratic demographic is killing my mind.

We bide our time wear our disguise, they try to complicate us, they under-rate us.

Burn your youth away cause there's nothing past today and if I can't change it,
you won't change it, we'll never make it
Burn your youth away cause there's nothing past today and if I can't change it,
you won't change it, we'll never make it.

I know you know they ain't got a fucking clue
I know you know they ain't got a fucking clue
I know you know they ain't got a fucking clue
I know you know they ain't got a fucking clue

Burn your youth away cause there's nothing past today and if I can't change it,
you won't change it, we'll never make it
Burn your youth away just seven words a page and if I can't change it,
you won't change it, we'll never make it.

I know you know they ain't got a fucking clue
I know you know



You can watch the video at www.johnnypanic.com

And the single can be bought from most decent record shops.

And if you like this song, I recommend you check out music by Four Star Mary.
Tap to rate this tab
# A B C D E F G H I J K L M N O P Q R S T U V W X Y Z