Song name
# A B C D E F G H I J K L M N O P Q R S T U V W X Y Z

Johnny Paycheck - Armed And Crazy tab

-------------------------------------------------------------------------------
                             Armed and Crazy- Johnny Paycheck
-------------------------------------------------------------------------------
Tabbed by: Travis Ramacher


Tuning: Standard E,A,D,G,B,e

Intro

e|--3-3-1-3-3-1-3-1----------------------------------------------------------|
B|-----------------3-1-------------------------------------------------------|
G|--------------------3-0----------------------------------------------------|
D|-----------------------3-0-5-5-3-5-3---------------------------------------|
A|------------------------------------5-3-1-0--------------------------------|
E|-------------------------------------------3-1-3---------------------------|
                                    (on last 3 play "G" chord)
chords: G,Bb,F,C

************************************
Tap to rate this tab
# A B C D E F G H I J K L M N O P Q R S T U V W X Y Z