Song name
# A B C D E F G H I J K L M N O P Q R S T U V W X Y Z

Johnny Reid - Sixty To Zero tab

Johnny Reid - Sixty To Zero
www.johnnyreid.com
Intro

--------------------------------0-------------------------------------|
------1-----3b4b3--1--1---------1--------1-----3b4b3--1--1------------|
-0h2----2----------------0-2----2---0h2----2----------------0-2---2---|
--------------------------------2---------------------------------3---|
--------------------------------0---------------------------------3---|
------------------------------------------------------------------1---|

Verse

 C    G/B    Am    G     F    C/E    G     G
-0-----0-----0-----3-----1-----0-----3-----3---|
-1-----3-----1-----3-----1-----1-----3-----3---|
-0-----0-----2-----0-----2-----0-----0-----0---|
-2-----0-----2-----0-----3-----2-----0-----0---|
-3-----2-----0-----2-----3-----3-----2-----2---|
-------------------3-----1-----0-----3-----3---|

strum pattern for verse is root, strum, root, strum, strum.


Chorus
  C    G    Am   F
--0----3----0----1--|
--1----3----1----1--|
--0----0----2----2--|
--2----0----2----3--|
--3----2----0----3--|
-------3---------1--|

same strum pattern as verse

Bridge

 STRUM PATTERN  SHOTS-->   STRUM PATTERN--->
 C   C/B   Am   C C/B Am   Am  G/B   F    F
-0----0----0----0--0--0----0----0----1----1---|
-1----3----1----1--3--1----1----3----1----1---|
-0----0----2----0--0--2----2----0----2----2---|
-2----0----2----2--0--2----2----0----3----3---|
-3----2----0----3--2--0----0----2----3----3---|
-------------------------------------1----1---|

and thats the song minus the solo.
Tap to rate this tab
# A B C D E F G H I J K L M N O P Q R S T U V W X Y Z