Song name
# A B C D E F G H I J K L M N O P Q R S T U V W X Y Z

Johnny Rivers - Swaying To The Music Slow Dancin tab

Opening:

E -13-11-11-9--13-11-9-9-11-9-------|
B ----------------------------10-8--|
G ----------------------------------|
D ----------------------------------|
A ----------------------------------|
E ----------------------------------|

E -13-11-11-9----------------|
B ------------8-10-12-8hold--|
G ---------------------------|
D ---------------------------|
A ---------------------------|
E ---------------------------|


INTRO:

E -13-11-11-9----------------------|
B ------------9-10-12-10-15-17-----|
G -----------------------------15--|
D ---------------------------------|
A ---------------------------------|
E ---------------------------------|

E --------------------|
B --------------------|
G -9-7-5-3-2-1slide3--|
D --------------------|
A --------------------|
E --------------------|


Use eruopeu's chords, refer to INTRO for "repeat Intro #3"
Tap to rate this tab
 
# A B C D E F G H I J K L M N O P Q R S T U V W X Y Z