Song name
# A B C D E F G H I J K L M N O P Q R S T U V W X Y Z

Johnny Rzeznik - Always Know Where You Are tab

Help us improve GuitareTab! Take a short survey!
This is the song from Disney's Treasure Planet
that plays during the credits. In the movie it
is sung by John Rzeznik, but on the album it is
by BB Mac. Alot of people have been trying to play
this in standard, but it makes it impossible to play.
Here is the tuning and it is 100% correct. It also
sounds way better as well.


Song: Always Know Where You Are
Artist: John Rzeznik
Tuning: (L-H) C C C G C G


/ or \ = slide


Intro/Chorus

G|-0--0-0-0--0-0--0-0-0-0---0--0-0-0--0-0--0--0--0--0--|
C|-0--0-0-0--0-0--0-0-0-0---0--0-0-0--0-0--0--0--0--0--|
G|-12-9-9/10-9-0--0-0-0-0---12-9-9/10-9-0--0--0--0--0--|
C|-12-0-0-0--0-0--0-0-0-0---12-0-0-0--0-0--0--0--0--0--|
C|-0--0-0-0--0-0--5-7-5-7---0--0-0-0--0-0--5--7--9--11-|
C|-0--0-0-0--0-0--5-7-5-7---0--0-0-0--0-0--5--7--9--11-|

Intro/Chorus

(If you are playing the song Acoustic, this may sound a little better.)

G|-0--0-0-0--0-0--0-0-0-0---0--0-0-0--0-0--0--0--0--0--|
C|-0--0-0-0--0-0--0-0-0-0---0--0-0-0--0-0--0--0--0--0--|
G|-0--0-0-0--0-0--0-0-0-0---0--0-0-0--0-0--0--0--0--0--|
C|-0--0-0-0--0-0--0-0-0-0---0--0-0-0--0-0--0--0--0--0--|
C|-0--4-4/5--5-0--5-7-5-7---0--4-4/5--5-0--5--7--9--11-|
C|-0--0-0-0--0-0--5-7-5-7---0--0-0-0--0-0--5--7--9--11-|

Verse

G|-0----0---0----0---0----0----0---0---|
C|-0----0---0----0---0----0----0---0---|
G|-0----0---0----0---0----0----0---0---|  X 2
C|-0----0---0----0---0----0----0---0---|
C|-12-\-7---12-\-7---12-\-7----9---7---|
C|-12-\-7---12-\-7---12-\-7----9---7---|

Bridge/Interlude

G|-0---0---0---0--0----0---0---0---0---|
C|-0---0---0---0--0----0---0---0---0---|
G|-0---0---0---0--0----0---0---0---0---|
C|-0---0---0---0--0----0---0---0---0---|
C|-9---7---5---4--2----9---7---5---7---|
C|-9---7---5---4--2----9---7---5---7---|

Outro

G|-0---0--0-0---0-0---0--0--0--0----0--0--0--0----0---|
C|-0---0--0-0---0-0---0--0--0--0----0--0--0--0----0---|
G|-12--9--9/10--9-0---0--0--0--0----0--0--0--0----0---|
C|-12--0--0-0---0-0---0--0--0--0----0--0--0--0----0---|
C|-0---0--0-0---0-0---5--7--5--7----5--7--9--11---12--|
C|-0---0--0-0---0-0---5--7--5--7----5--7--9--11---12--|


~End

Please RATE! (And let me know what you think.)
Related for Always Know Where You Are tab