Song name
# A B C D E F G H I J K L M N O P Q R S T U V W X Y Z

Johnny Thunders - Mia tab

-------------------------------------------------------------------------------
MIA - Poison Idea
Darby Crash Rides Again
-------------------------------------------------------------------------------
Tabbed by: axeslash
Email: holmzito@yahoo.com

Tuning: Standard

e|----------------|
B|----------------|
G|----------------|
D|-7--------------|
A|-7--------------|
E|-5--------------|

e|---------------------------------------------------------------------|
B|---------------------------------------------------------------------|
G|---------------------------------5/7-7-7-7-7-7-7-7-5/7-7-7-7-7-7-7-7-|
D|-7-7-7-7-7-7-7-7-7-7-7-7-7-7-7-7-5/7-7-7-7-7-7-7-7-5/7-7-7-7-7-7-7-7-|
A|-7-7-7-7-7-7-7-7-7-7-7-7-7-7-7-7-3/5-5-5-5-5-5-5-5-3/5-5-5-5-5-5-5-5-|
E|-5-5-5-5-5-5-5-5-5-5-5-5-5-5-5-5-------------------------------------| x4

e|---------------------------------|
B|---------------------------------|
G|---------------------------------|
D|-5-5-5-5-5-5-5-5-2-2-2-2-2-2-2-2-|
A|-5-5-5-5-5-5-5-5-2-2-2-2-2-2-2-2-|
E|-3-3-3-3-3-3-3-3-0-0-0-0-0-0-0-0-| x4

e|---------------------------------------------------------------------|
B|---------------------------------------------------------------------|
G|---------------------------------5/7-7-7-7-7-7-7-7-6/7-7-7-7-7-7-7-7-|
D|-7-7-7-7-7-7-7-7-7-7-7-7-7-7-7-7-5/7-7-7-7-7-7-7-7-5/7-7-7-7-7-7-7-7-|
A|-7-7-7-7-7-7-7-7-7-7-7-7-7-7-7-7-3/5-5-5-5-5-5-5-5-3/5-5-5-5-5-5-5-5-|
E|-5-5-5-5-5-5-5-5-5-5-5-5-5-5-5-5-------------------------------------| x4

e|-------------------------------------------------------------------------------------|
B|-------------------------------------------------------------------------------------|
G|-5-------5-------3-3-3-3-3-3-3-3-----5-------5---------------------------------------|
D|-5--5----5--5----3-3-3-3-3-3-3-3-5---5--5----5--5----3-3-3-3-3-3-3-3-3-3-3-3-3-3-3-3-|
A|-3--5----3--5----1-1-1-1-1-1-1-1-5---3--5----3--5----3-3-3-3-3-3-3-3-3-3-3-3-3-3-3-3-|
E|----3-------3--------------------3------3-------3----1-1-1-1-1-1-1-1-1-1-1-1-1-1-1-1-|

e|---------------------------------------------------------------------|
B|---------------------------------------------------------------------|
G|---------------------------------5/7-7-7-7-7-7-7-7-5/7-7-7-7-7-7-7-7-|
D|-7-7-7-7-7-7-7-7-7-7-7-7-7-7-7-7-5/7-7-7-7-7-7-7-7-5/7-7-7-7-7-7-7-7-|
A|-7-7-7-7-7-7-7-7-7-7-7-7-7-7-7-7-3/5-5-5-5-5-5-5-5-3/5-5-5-5-5-5-5-5-|
E|-5-5-5-5-5-5-5-5-5-5-5-5-5-5-5-5-------------------------------------| x4

e|---------------------------------|     e|----------------------|
B|---------------------------------|     B|----------------------|
G|---------------------------------|     G|----------------------|
D|-5-5-5-5-5-5-5-5-2-2-2-2-2-2-2-2-|     D|-5-5-5-5-5-5-5-5-2----|
A|-5-5-5-5-5-5-5-5-2-2-2-2-2-2-2-2-|     A|-5-5-5-5-5-5-5-5-2----|
E|-3-3-3-3-3-3-3-3-0-0-0-0-0-0-0-0-| x3  E|-3-3-3-3-3-3-3-3-0----|


| /  slide up
| \  slide down
| h  hammer-on
| p  pull-off
| ~  vibrato
| +  harmonic
| x  Mute note
===============================================================================
Tap to rate this tab
# A B C D E F G H I J K L M N O P Q R S T U V W X Y Z