Guitaretab - guitar tabs
Song name
# A B C D E F G H I J K L M N O P Q R S T U V W X Y Z

Johnny Thunders - I Can Tell tab

Intro:
e|---------------------------------------------------|
A|---------------------------------------------------|
D|---------------------------------------------------|
G|--5-5-5-3-3-3-5-5-5-3-3-3-5-5-5-3-3-3-5-5-5-3-3-3--|
B|--5-5-5-3-3-3-5-5-5-3-3-3-5-5-5-3-3-3-5-5-5-3-3-3--|
E|--3-3-3-1-1-1-3-3-3-1-1-1-3-3-3-1-1-1-3-3-3-1-1-1--|

e|---------------------------------------------------|
A|---------------------------------------------------|
D|--5-5-5-3-3-3-5-5-5-3-3-3-5-5-5-3-3-3-5-5-5-3-3-3--|
G|--5-5-5-3-3-3-5-5-5-3-3-3-5-5-5-3-3-3-5-5-5-3-3-3--|
B|--3-3-3-1-1-1-3-3-3-1-1-1-3-3-3-1-1-1-3-3-3-1-1-1--|
E|---------------------------------------------------|

e|---------------------------------------------------|
A|---------------------------------------------------|
D|--------3-5----------3----5b----7b-5b--------------|
G|--5-5-5-3-5-5--5-5-5-3-5--5b-5b-7b-5b-5b-----------|
B|--5-5-5-1-3-5--5-5-5-1-5--3b-5b-5b-3b-5b-----------|
E|--3-3-3-----3--3-3-3---3-----3b-------3b-----------|
[ Tab from: http://www.guitaretab.com/j/johnny-thunders/148631.html ]
Verses:
e|---------------------------------------------------|
A|---------------------------------------------------|
D|---------------------------------------------------|
G|--5-5-5-3-3-3-5-5-5-3-3-3-5-5-5-3-3-3-5-5-5-3-3-3--|
B|--5-5-5-3-3-3-5-5-5-3-3-3-5-5-5-3-3-3-5-5-5-3-3-3--|
E|--3-3-3-1-1-1-3-3-3-1-1-1-3-3-3-1-1-1-3-3-3-1-1-1--|

e|---------------------------------------------------|
A|---------------------------------------------------|
D|--5-5-5-3-3-3-5-5-5-3-3-3-5-5-5-3-3-3-5-5-5-3-3-3--|
G|--5-5-5-3-3-3-5-5-5-3-3-3-5-5-5-3-3-3-5-5-5-3-3-3--|
B|--3-3-3-1-1-1-3-3-3-1-1-1-3-3-3-1-1-1-3-3-3-1-1-1--|
E|---------------------------------------------------|

e|---------------------------------------------------|
A|---------------------------------------------------|
D|---------------------------------------------------|
G|--5-5-5-3-3-3-5-5-5-3-3-3-5-5-5-3-3-3-5-5-5-3-3-3--|
B|--5-5-5-3-3-3-5-5-5-3-3-3-5-5-5-3-3-3-5-5-5-3-3-3--|
E|--3-3-3-1-1-1-3-3-3-1-1-1-3-3-3-1-1-1-3-3-3-1-1-1--|

e|---------------------------------------------------|
A|---------------------------------------------------|
D|--5-5-5-3-3-3-5-5-5-3-3-3-5-5-5-3-3-3-5-5-5-3-3-3--|
G|--5-5-5-3-3-3-5-5-5-3-3-3-5-5-5-3-3-3-5-5-5-3-3-3--|
B|--3-3-3-1-1-1-3-3-3-1-1-1-3-3-3-1-1-1-3-3-3-1-1-1--|
E|---------------------------------------------------|

e|-----------------------------|
A|-----------------------------|
D|-7-7-7-5-5-5-----------------|
G|-7-7-7-5-5-5-5b-5-5-5-5------|
B|-5-5-5-3-3-3-5b-5-5-5-5------|
E|-------------3b-3-3-3-3------|

Can't tab the lead parts because it differs from every recording...
Related for I Can Tell tab
I Can Tell chords by Johnny Thunders