Song name
# A B C D E F G H I J K L M N O P Q R S T U V W X Y Z

Johnny Thunders - Pirate Love tab

Pirate Love
by Johnny Thunders

Tabbed by:Johnny Volume
Tuning:EADGBe

            (Verses)
e|----------------------------------------|
B|----------------------------------------|
G|----------------------------------------|
D|-5-5-7-5--10-12-10--5-5-7-5--8----------|  (x2)
A|-3-3-3-3--8--8--8---3-3-3-3--6----------|
E|----------------------------------------|

            (Chorus)
e|------------------------------------------|
B|------------------------------------------|
G|------------------------------------------|
D|-8-8-7-7-5-5-5-7-5-5-5-7-5-5-5-7-5-5-5-5--|  (x2)
A|-6-6-5-5-3-3-3-3-3-3-3-3-3-3-3-3-3-3-3-3--|
E|------------------------------------------|

e|----------------------------------------|
B|----------------------------------------|
G|----------------------------------------|
D|-8---8--7--6-5--------------------------|
A|-6---6--5--4-3--------------------------|
E|----------------------------------------|


It's my first tab, so sorry if the layout sucks. You can basicly figure out the rest of 
song from that. Awsome song from an awsome man.

Johnny Volume
Tap to rate this tab
 
# A B C D E F G H I J K L M N O P Q R S T U V W X Y Z