Song name
# A B C D E F G H I J K L M N O P Q R S T U V W X Y Z

Johnny Thunders - I Wanna Be Loved tab

----------------------------------------------------------------------------
			     I Wanna Be Loved - Johnny Thunders
----------------------------------------------------------------------------
Tabbed by: L.A.M.F. 77'


Tuning: Standard

  Verse:

e|-----------------3--------|
B|-----------------3--------|
G|-----------------4--------|
D|-----------------5--------|
A|---5--5---3--3---5--------|
E|---3--3---1--1---3--------|

  Chorus:

e|--------------------------------|
B|--------------------------------|
G|-----------------------------7--|
D|---5--5--7--5----------------7--|
A|---3--3--3--3---5--5--7--5---5--|
E|----------------3--3--3--3------|

 Solo:


e|---3--------------3------------3--3--3--3--3--8------------8----|
B|---3--------------3------------3--3--3--3--3--8--10--8-----8----|
G|------5b--3-----------5b--3/---------------------10--8--9--9----|
D|-------------5/--------------------------------------------10---|
A|----------------------------------------------------------------|
E|----------------------------------------------------------------|
Tap to rate this tab
# A B C D E F G H I J K L M N O P Q R S T U V W X Y Z