Guitaretab - guitar tabs
Song name
# A B C D E F G H I J K L M N O P Q R S T U V W X Y Z

Johnny Thunders - Countdown Love tab

----------------------------------------------------------------------------
			     Countdown Love - Johnny Thunders
----------------------------------------------------------------------------
Tabbed by: L.A.M.F. 77'
Email:

Tuning: Standard

Intro:

e|-------------------------------------------------------------------------|
B|-------------------------------------------------------------------------|
G|---4---------------------------------------------------------------------|
D|---4-------2------------2------------------------------------------------|
A|---2-------2------------2------------------------------------------------|
E|-------3~--0---3b--3b---0------------------------------------------------|

Verse:

e|-------------------------------------------------------------------------|
B|-------------------------------------------------------------------------|
G|---2----2----------------------------------------------------------------|
D|---2----2-------2------------2-------------------------------------------|
A|---0----0-------2------------2-------------------------------------------|
E|------------3b--0---3b--3b---0-------------------------------------------|

Chorus:

e|-------------------------------------------------------------------------|
B|-------------------------------------------------------------------------|
G|-------2-------2---------------------------------------------------------|
D|---4---2---4---2-------2------------2------------------------------------|
A|---4---0---4---0-------2------------2------------------------------------|
E|---2-------2-------3b--0---3b--3b---0------------------------------------|

Bridge:
[ Tab from: http://www.guitaretab.com/j/johnny-thunders/73987.html ]
e|-------------------------------------------------------------------------|
B|-------------------------------------------------------------------------|
G|---9---7/----------------------------------------------------------------|
D|---9---7/--7---9---------------------------------------------------------|
A|---7---5/--7---9---------------------------------------------------------|
E|-----------5---7---------------------------------------------------------|

1st Solo:
                                                                       (play 12h14p12 1 
time before slide 4x total)
e|-----------12h14p12---12h14p12---12h14p12---/15---14---12----------------|
B|-/12-14----12h14p12---12h14p12---12h14p12-------------------14--12--12---|
G|--------------------------------------------------------------------14b--|
D|-------------------------------------------------------------------------|
A|-------------------------------------------------------------------------|
E|-------------------------------------------------------------------------|

e|-------------------------------------------------------------------------|
B|-12--12--12---12--12---12------------------------------------------------|
G|-----14b------14b------14b-----------------------------------------------|
D|-------------------------------------------------------------------------|
A|-------------------------------------------------------------------------|
E|-------------------------------------------------------------------------|

2nd Solo:

e|-------14--12--12--15--12--12--12--12------------------15--15--15--15----|
B|--/12--14--12--12--12--12--12--12--12----12--12--12----12--12--12--12----|
G|-----------------------------------------14b-----14b---------------------|
D|-------------------------------------------------------------------------|
A|-------------------------------------------------------------------------|
E|-------------------------------------------------------------------------|

I think I tabbed the first part of the second solo right but I couldn't figure out the rest...

| /  slide up
| \  slide down
| h  hammer-on
| p  pull-off
| ~  vibrato
| +  harmonic
| x  Mute note
=================================================================
Related for Countdown Love tab
Advertisement will be closed in 10 seconds