Song name
# A B C D E F G H I J K L M N O P Q R S T U V W X Y Z

Johnny Truant - Bloodening tab

hey guys, sorry i don't have the full tab up here, i just have a few parts, im still 
to get the rest of it up here, should have it all up here soon tho

Drop C tunning

Intro

D|------------------------------|
A|------------------------------|
F|------------------------------|
C|--000-2-3-33---000-2-3-5------|     X6
G|--000-2-3-33---000-2-3-5------|
C|--000-2-3-33---000-2-3-5------|


Im not sure what this riff is in the song

D|--------------------------------|
A|--------------------------------|
F|-------4h5h7--------------------|
C|--2h3h5-----                X12-|
G|--------------------------------|
C|--------------------------------|


Then the verse after it goes like this with another guitar playing the intro riff underneath it

D|-------------------------------|
A|-------------------------------|
F|-------------------------------|
C|-------2h3h5               X12-|
G|--2h3h5------------------------|
C|-------------------------------|


That's all I got for now, its a shredder song
BREE!!
Tap to rate this tab
# A B C D E F G H I J K L M N O P Q R S T U V W X Y Z