Song name
# A B C D E F G H I J K L M N O P Q R S T U V W X Y Z

Johnny Winter - Rollin And Tumblin tab

Rollin' and Tumblin' - Johnny Winter
-------------------------------------------------------------------------------
Tabbed by: JPageBluesM
Email:

Tuning:EADGBe

This is my first tab so cut me some slack.
First of all this might be a little weird, but this is played with a slide in standard
tuning.  On Riff 1 where it has the vibratos just move the slide back and forth real
fast. Oh what the hell.  Here ya go.

Riff 1
e|-----------------------------------------------|
B|-----------------------------------------------|
G|-0-0-3/7-7~-7~-7~-7/5-5~-5~-5-5/3---3-3--------|
D|-------------------------------------------3---|
A|-----------------------------------------------|
E|-----------------------------------------------|

Riff 2
e|-----------------------|
B|-----------------------|
G|-0-0-3/4/3----0-3/4-0--|
D|-------------3---------|
A|-----------------------|
E|-----------------------|

Riff 3
e|--------------------------------------------|
B|--------------------------------------------|
G|----------12-12-12-12-12/10---------12/10---|
D|-12-12--------------------------10/12-------|
A|--------------------------------------------|
E|--------------------------------------------|

Riff 1
Riff 2 x3
Riff 3
Riff 2 x3
Riff 3
Riff 2 x3
Riff 1 x1
Riff 2 x3
Repeat entire thing over.


Well there you have it.... its the best i can do
Tap to rate this tab
 
# A B C D E F G H I J K L M N O P Q R S T U V W X Y Z