Song name
# A B C D E F G H I J K L M N O P Q R S T U V W X Y Z

Johnny Winter - Dallas tab

   -dallas...johnny winter
    -from....scorchin' blues

     this is tabbed in open G, w/slide on the fourth finger.
     tab is fairly well accurate, though not absolute...
     couldn't tab the timing or chord strum pattern.
     you'll have to listen to the recording.
     except for chords and a few bass notes, all notes are
      played with the slide.
        comments/correctiions appreciated.




  -intro:

   d-----------/12-12-12-12\-0----33------------/5-5\3-0---33-----|
   b-----------/12-12-12-12\-0--/3--3\2------------------/3--3\2--|
   g-----------/12-12-12-----0----------3-0-0---------------------|
   d-----------/12-12----------------------3----------------------|
   g--0-0-/3-0--------------------------------0-------------------|
   d--------------------------------------------------------------|


                                              goin'
   |-------------------------------------------||
   |-----------------------/12-12-12\--3\2-----||
   |-----------------------/12-12-12\-----3----||
   |--------0-3/5--5-------/12-12-12\----------||
   |--0-3/5----------5-3-0------------------0--||
   |-------------------------------------------||


  -G7
    back to dallas        take my ribber and my gun
   |--3--------------------|-3----------------------|
   |--0-------------3\2----|-0----------------------|
   |--0----------------3---|-0----------------------|
   |--0--------------------|-0----------------------|
   |--0------------------0-|-------------5---3--0---|
   |-----------------------|------------------------|


   |------------------------------------3\5-55-------|
   |----/12-12-12-12\--3\2--------------------3\2----|
   |--0-/12-12-12-12\-----3-0-0---5\3-0--------------|
   |----/12-12-12-12\--------3-----------------------|
   |----------------------------0-----------------0--|
   |-------------------------------------------------|


   C7 (7th tone held w/slide)
    back to dallas    take my ribber and my gun
   |-8-----------------|-8----------------------|
   |-5-----------------|-5----------------------|
   |-5-----------------|-5----------------------|
   |-5-----------------|-5----------------------|
   |-5-----------------|-5-----------5---3--0---|
   |----------------8--|------------------------|


   |-------------------------------------3/5-55------|
   |---------------------------------3\2-------3\2---|
   |-----0---0-------0----0---0---------3---------3--|
   |--/5--3------------/5--3-------------------------|
   |-----------5-3-0--0--------5-3-0-----------------|
   |-------------------------------------------------|


   D7
    lotta people there lookin for trouble   ee-hee,
   |--10-----------------------------------------------|
   |--7------------------------------------------------|
   |--7------------------------------------------------|
   |--7--------------------------------------------/5--|
   |--7----------------------------------0-3-----------|
   |---------------------------------------------------|


    sure go'n give them some                                      i
   |---------------------------33-----------12------12-------------||
   |-------------------------/3--3\2----------12\-----12\--3\2-----||
   |--------------------------------3-0-0--------12---12\-----3----||
   |-----5-----------------------------3---------------------------||
   |----------5----3----0-----------------0---------------------0--||
   |---------------------------------------------------------------||


  -G7
    believe ol' dallas        is the meanest town i know
   |-3--------------------------|-3----------------------|
   |-3--------------------------|-3----------------------|
   |-0-----------------7\5-3-0--|-4----------------------|
   |-0--------------------------|-0----------------------|
   |-0--------------------------|-----------------3--0---|
   |----------------------------|------------------------|


                                     i
   |--------------------3/5-55--------|
   |---------------3\2--------3\2-----|
   |-----0--0---------3----------3----|
   |--/5--3---------------------------|
   |---------5-3-0-----------------0--|
   |----------------------------------|


   C7
    believe that dallas    man the meanest town i know
   |-8-----------------------|-8-------------------------|
   |-5-----------------------|-5-------------------------|
   |-5-----------------------|-5-------------------------|
   |-5-----------------------|-5-------------------------|
   |-5------------------5----|--------------------0------|
   |----------------------8--|---------------------------|

                                      because
   |----------------------3/5-55--------|
   |-----------------3\2--------3\2-----|
   |--------------------3----------3----|
   |-------0----------------------------|
   |-/3-/5--/5--3--0-----------------0--|
   |------------------------------------|


   D7
    you ain't safe in dallas    ee-hee   i
   |-10-----------------------------------|
   |-7------------------------------------|
   |-7------------------------------------|
   |-7--------------------------------/5--|
   |-7--------------------------0-3-5-----|
   |--------------------------------------|


    don't care where you go                                              you
   |-----------------------3-3-3-3-----------------------------/12-12-12\-||
   |-----------------------3-3-3-3-----------------------------/12-12-12\-||
   |-----------------------4-4-4-4--7\5-7\5-3-0---------0------/12-12-12\-||
   |-------------------------------------------------/5--------/12-12-12\-||
   |-----------5-----3---0----------------------0-3/5----5-3-0------------||
   |----------------------------------------------------------------------||


  -G7
    know that i ain't evil        just out havin' fun
   |---------------------------------------------------------|
   |---------------------------------------------------------|
   |------------0--------------0--------------0-----------0--|
   |-----0--------------0---3----------0-------------0--3----|
   |-0--------3-------0-----------0--------3------0----------|
   |---------------------------------------------------------|



    so much sh*t in texas    you're  bound to step in some
   |---------------------------------3--3-3--3----3--3-----|
   |---------------------------------3--3-3--3----3--3-----|
   |-------------0-----------0-------4--4-4--4----4--4-----|
   |---0--------------0---3----------0--0-0--0----0--0-----|
   |-0------3-------0--------------------------------------|
   |-------------------------------------------------------|


   C7
    goin' back to dallas     go'n take my ribber and my gun
   |-8------------------------|-8---------------------------|
   |-5------------------------|-5---------------------------|
   |-5------------------------|-5---------------------------|
   |-5------------------------|-5---------------------------|
   |-5----------------------5-|------------------3------0---|
   |----------------------8---|-----------------------------|

                                                     lotta
   |-----------------33---33--------------3/5-55-------|
   |-------------------2/3--3\2-------3\2-------3\2----|
   |----0--0-------------------3-0-0-----3---------3---|
   |-/5--3------------------------3--------------------|
   |--------5--3--0------------------0--------------0--|
   |---------------------------------------------------|


   D7
    people there lookin' for trouble    ee-hee,
   |---7------------------------------------------|
   |-7-7------------------------------------------|
   |-5-5------------------------------------------|
   |-7-7---------------------------------------0--|
   |------------------------------------0-3-5-----|
   |----------------------------------------------|


     sure go'n give them some
   |- ---------------------------------------/12-12-12\-----||
   |----------------------------------3\2----/12-12-12\-----||
   |-------------------------------------3---/12-12-12\-----||
   |-----------------------------------------/12-12-12\-----||
   |-5---------5---------0-----/3--/5------0------------3-0-||
   |----------------8---------------------------------------||


  -instro.
   |-3-3-3-3----------------3-3-3---3--------------|
   |-3-3-3-3----------------3-3-3---3--------------|
   |-4-4-4-4--7\5-7\5--3-0--4-4-4-3-4--------------|
   |------------------------------------------0----|
   |-0---------------------------------0--3/5---0--|
   |-----------------------------------------------|


   |-/12-12-12-10--------------------3/5-0------|
   |-/12-12-------12\--------------------0------|
   |-/12-12----------12\10-12---7\5-3-------0---|
   |-----------------------------------------0--|
   |--------------------------0------------0----|
   |--------------------------------------------|


   |------------------------------5--3-----5---33-------------|
   |----------------------------------3\2----/3--3\2----------|
   |-3/5--5\3p0-/3--0--3/5--5\3p0--------3-----------3-0-0----|
   |-----------------0----------------------------------3-----|
   |---------------0---------------------------------------0--|
   |----------------------------------------------------------|


   |------3/5--0---------------------------------------|
   |-----------0---------------------------------------|
   |-5\3-0--------0--/5-/5-5\p0-/3-/3--0---------0-/5--|
   |---------------0--------------------0-/3--/3\------|
   |-------------0--------------------0----------------|
   |---------------------------------------------------|

                                                       gonna
   |-------------------------/5-55----------------------||
   |---------------------3\2------3\2----/12-12-12-12\--||
   |----------0--0----------3--------3---/12-12-12-12\--||
   |--------5--3-------------------------/12-12-12-12\--||
   |-5-3-0---------5-3-0---------------0----------------||
   |----------------------------------------------------||


  -G7
    load up my revolver      sharpen up my knife       some
   |----------------------------------------------------|
   |----------------------------------------------------|
   |-----------0----------0-------------0------------0--|
   |-----0----------0--3---------0--------------0--3----|
   |-0------3----0-----------0-------3-----0------------|
   |----------------------------------------------------|


    redneck messin' with me man i'm bound to take his life
   |--------------------------------3-----3--3----3---3----|
   |--------------------------------3-----3--3----3---3----|
   |-----------0----------------0---4-----4--4----4---4----|
   |---0-----------------0--3-------------0----------------|
   |-0------3-------0---------------0----------------------|
   |-------------------------------------------------------|


   C7
    go'n to dallas      take my ribber and my gun
   |-8------------------|-8-----------------------|
   |-5------------------|-5-----------------------|
   |-5------------------|-5-----------------------|
   |-5------------------|-5-----------------------|
   |-5---------------5--|-5------------5------0---|
   |---------------8----|------------------8------|

                                           lotta
   |----12-12-12-12\10--------12------------|
   |-/12--------------12\11----------3\2----|
   |-----------------------12---12------3---|
   |----------------------------------------|
   |------------------------------12------0-|
   |----------------------------------------|


   D7
    people there looking for trouble    ee-hee,  sure
   |-10-------------------------------------------|
   |-7--------------------------------------------|
   |-7--------------------------------------------|
   |-7----------------------------------/5--------|
   |-7----------------------------0-3-5-----------|
   |----------------------------------------------|


    go'n give them some
   |-------------------------------------12\-----12----||
   |-----------------------------3\2--------/12--------||
   |------------------------0--0----3-0--------12----0-||
   |---------------------/5--3-----------------------0-||
   |-----5----3----0---------------------------------0-||
   |---------------------------------------------------||

     uh huh   uh huh  huh  m hm hm m hm hm
   |/5-/5----5\3-----------3---------------------------------3/5-||
   |-------------3---------------------------------------3\2-----||
   |------------------3------5--3-/5-3--0---0---0-0---------3----||
   |-----------------------------------------/5--3---------------||
   |-0-------------------------------------0--------5-3-0--------||
   |-------------------------------------------------------------||





   alternative chord positions:

   G7               C7         D7
   --3----------------8----5-----10----7--------|
   --3----6----12-----8----5-----10----7--------|
   --4----4----10-----9----3-----11----5--------|
   -------5----12-----10---------12----7--------|
   -(0)--------------(0)------------------------|
   -----------------------------(0)-------------|



   rt. hand fingering  (intro. part)

       I  T  ITI      I=index  T=thumb
   ------------------------------|
   ----3\2-----------------------|
   -------3--0-0-----------------|
   -----------3------------------|
   ------------------------------|
   ------------------------------|
Tap to rate this tab
# A B C D E F G H I J K L M N O P Q R S T U V W X Y Z