Song name
# A B C D E F G H I J K L M N O P Q R S T U V W X Y Z

Johnny Winter - Mean Town Blues tab

 

E|----------|   
B|----------|
G|----------|
D|------2-2-|    x8 Repeat this throughout entire song
A|------0-0-|
E|-3h4------| 


E|------------------------|
B|------------------------|
G|------------------------|
D|-5-4--------------------|
A|------3b-0---------3b-0-|
E|--------------3-2-------| 


That's basically the rhythm part of the song with the exception of the chorus, and solo.
Tap to rate this tab
# A B C D E F G H I J K L M N O P Q R S T U V W X Y Z