Song name
# A B C D E F G H I J K L M N O P Q R S T U V W X Y Z

Johnossi - Whats The Point chords

Highlighted       Show chord diagrams
                            Johnossi - What's the Point


Capo:2nd fret(All chords and tones are relative to where the capo is)


A

A   F#m D E A   F#m D E

A                              F#m     E
Where do we go when we go from here
A                                              F#m      E
Feels like a circle around me while I wait for more
A                                     F#m     E
Know that I wanna know where I follow you
A                                                  F#m
Don't wanna go down the street where you once came from
    E        A
And I wanna know

A
   What's the point of doing anything
                 F#m
If you'll never notice
                 D5            E
I would sit and wait for you again

A   F#m D E A   F#m D E

A                            F#m     E
A line of boxes in an open field
A                                            F#m     E
There's a million empty and there's one for real
A                                           F#m     E
Do you want me to go search in each all of them
A                                        F#m
Or just lay on the grass and act and pretend
            E         A
That's what I wanna know

A
   What's the point of doing anything
                  F#m
If you'll never notice
                 D5            E
I would sit and wait for you again
A
   What's the point of doing anything
                 F#m
If you'll never notice
                 D5            E
I would sit and wait for you again


F#m G A   F#m G A


G         A                  D
Then you came to me and you said
            Bm           Em          A
I was not really sure enough how to feel
    G                      A
I pretend like you're not real
G         A                  D
Then you came to me and you said
            Bm           Em          A
I was not really sure enough how to feel
    G                        A     D
To pretend like you're not real to me


A
   What's the point
A
   What's the point
A
   What's the point of doing anything
                  F#m
If you'll never notice
                 D              E
I would sit and wait for you again
A
   What's the point of doing anything
                  F#m
If you'll never notice
                 D             E
I would sit and wait for you again


A            F#m    E    A        F#m    E


A   F#m D E A   F#m D 
A

_________________________________________________________________________


Intro

   A
e|----------------------------------------|
B|-5---5h7-5------------------------------|
G|-6---6-------7--6--4--4--4h64--2-2------|
D|-7---7----------------------------------|
A|-0---0-------0-----0--0-0-0-0--0--------|
E|----------------------------------------|

   A                              F#m             D           E       x2
e|---0--0--0--------0--0--0----------2--2--2---------5--5--5---0-0-0--|
B|---2--2--2---2----2--2--2--2-0-----2--2--2---2-----7--7--7---0-0-0--|
G|---2--2--2--------2--2--2------2---2--2--2---------7--7--7---1-1-1--|
D|------------------------------------------------0----0--0----2-2-2--|
A|-0---0--0-------0---0--0-------------------------------------2-2-2--|
E|---------------------------------2---2--2--------------------0-0-0--|

Solo

  A
e|5555555555555555999999997777777755555555555555555555444455554444----|
B|--------------------------------------------------------------------|
G|--------------------------------------------------------------------|
D|--------------------------------------------------------------------|
A|--------------------------------------------------------------------|
E|--------------------------------------------------------------------|
  F#m                             E                                   x2
e|2222222222222222555555552222222200000000000000004444444444004444----|
B|--------------------------------------------------------------------|
G|--------------------------------------------------------------------|
D|--------------------------------------------------------------------|
A|--------------------------------------------------------------------|
E|--------------------------------------------------------------------|

Please don't hold back your critisism nor your compliments.  /DrWikman
Tap to rate this tab
 
# A B C D E F G H I J K L M N O P Q R S T U V W X Y Z