Johnossi - Whats The Point tab

This is what I could hear him play. Hopefully you'll like it!

Standard tuning, no capo. 

e|--7-------------------------------------------------|
B|--7-------------------------------------------------|
G|--8---11--13--11--9---------------------------------| Played once
D|--9---------------------13--11--11--13--11--9-------|
A|--9-------------------------------------------------|
E|--7-------------------------------------------------|

e|--7------------------------------------------------------9--9--|
B|--7------------------------------------------------------11-11-|
G|--8---11-11-11-----11-11-11-------13-13-13----16-16-16---11-11-| Played
D|--9------------13--------- -14s13----------13------------11-11-| twice
A|--9------------------------------------------------------9--9--|
E|--7------------------------------------------------------------|


/Louise
Tap to rate this tab
 
# A B C D E F G H I J K L M N O P Q R S T U V W X Y Z