Song name
# A B C D E F G H I J K L M N O P Q R S T U V W X Y Z

Johnossi - Dead End tab

Intro

e----------------------------------------3----0----|
B-1-1-1-1-0-0-0-0-1-1-1-1-0-1-5-1----------0-1--1--|
G------------------------------------2-2-----------|
D--------------------------------------------------|
A--------------------------------------------------|
E--------------------------------------------------|


B     E     F#   G#m
e|------------------------|
B|------------------------|
G|--4---------------------|
D|--4-----2-----4-----6---|
A|--2-----2-----4-----6---|
E|--------0-----2-----4---|

Hela låten är E - F# G#m - G#m - F# E

Lyssna på låten för att få in tajmingen, den är inte allt för krånglig.

Refräng:
E              F#        G#m
Up in your head where're you going?
G#m          F#    B   E
Where're you going now friend
E         F#         G#m F#
Fighting against the dead end
Tap to rate this tab
 
# A B C D E F G H I J K L M N O P Q R S T U V W X Y Z