Johnossi - In The Mystery Time Of Cold And Rain chords

  (E)Plays soft in some places and high and slow in the beginning 
e|-0-------------------------0^2^0---------------------|
B|-0--------------4---------3-----3--------------------|
G|-1-----1-------4-4-4-----2-------2-------------------|
D|-2----2-2-2---4---4-----0----------------------------|
A|-2---2---2---2------2-4------------------------------|
E|-0--0------------------------------------------------|
Repeat to he start singing I know I lift my values...
LetsSingIt - Your favorite Music Community


Repeat 2 times
e|-3-3-------0-----------------------------------------|
B|-3--3-3-3--2-2-0^2^0---------------------------------|
G|-0---0-0---2--2-----2--------------------------------|
D|-0---------2---------2-------------------------------|
A|-2---------0-----------------------------------------|
E|-3---------------------------------------------------|

Solo
First part repeat 2 times
e|-----------------------------------------------------|
B|------7----------------------------------------------|
G|-(9)-9-9-8-8---6-7-9-7-6-6-6-------------------------|
D|------------9-9--------------7-9---------------------|
A|-----------------------------------------------------|
E|-----------------------------------------------------|
(9) only second time

Second part Repeat 2 times
e|-----------------------------------------------------|
B|-----------------------------------------------------|
G|-7-9-7-6^7^6-----------------------------------------|
D|------------9----------------------------------------|
A|-----------------------------------------------------|
E|-----------------------------------------------------|
Tap to rate this tab
 
# A B C D E F G H I J K L M N O P Q R S T U V W X Y Z