Song name
# A B C D E F G H I J K L M N O P Q R S T U V W X Y Z

Johnossi - Man Must Dance tab

Help us improve GuitareTab! Take a short survey!
-------------------------------------------------------------------------------
			     MAN MUST DANCE - Johnossi
-------------------------------------------------------------------------------
Tabbed by: Lordmeta
Email: lordmeta@web.de

Tuning: standard 

*****************************************************************
intro
1x
|---------|
|---------|
|---------|
|---------|
|-10 / 2--|
|---------|
*****************************************************************
strophe
2x

Hm              F#              A               E       
|---------------|---------------|---------------|---------------|
|----------3----|---------------|---1/2-1/2-----|----------3--0-|
|----4--------4-|---------3-----|------------2--|---------------|
|----4----------|----4------4---|--------------2|-------2-------|
|-2-----2-------|----4--------4p|-0-------------|----2----------|
|---------------|-2-----2-------|---------------|-0-------------|

2x
 Hm              F#              A               E         
|---------------|---------------|---------------|----------0----|
|----------3----|---------------|---1/2-1/2-----|-------------0-|
|----4--------4-|---------3-----|------------2--|---------------|
|----4----------|----4------4---|--------------2|-------2-------|
|-2-----2-------|----4--------4p|-0-------------|----2----------|
|---------------|-2-----2-------|---------------|-0-------------|

*****************************************************************
Chorus: ( i think this is at least what he plays)
1x
 D               A               E               F# 
|--------2------|---------------|--------1------|---------------|
|---3-------3---|-----1/2-------|-----------0---|---------------|
|---2-----------|---2-------2---|---------------|--------3------|
|-0----0--------|---2-----------|---2-----------|---4------4----|
|---------------|-0-------------|---2-----------|---4-----------|
|---------------|---------------|-0----0--------|-2---2---------|

1x
 D               A               E               
|--------2------|---------------|--------1------|
|---3-------3---|-----1/2-------|-----------0---|
|---2-----------|---2-------2---|---------------|
|-0----0--------|---2-----------|---2-----------|
|---------------|-0-------------|---2-----------|
|---------------|---------------|-0----0--------|

but you can also play it like that:

Chorus:
1x
 D               A               E               F# 
|---------------|---------------|--------1------|---------------|
|---------7-----|---------------|-----------2---|---------------|
|---7-------7---|-------5h6-----|---------------|--------3------|
|---7-----------|---7-----------|---2-----------|---4------4----|
|-5----5--------|---7---------7-|---2-----------|---4-----------|
|---------------|-5-------------|-0----0--------|-2---2---------|

1x
 D               A               E               
|---------------|---------------|--------1------|
|---------7-----|---------------|-----------2---|
|---7-------7---|-------5h6-----|---------------|
|---7-----------|---7-----------|---2-----------|
|-5----5--------|---7---------7-|---2-----------|
|---------------|-5-------------|-0----0--------|

*****************************************************************
strophe
2x
 Hm              F#              A               E        
|---------------|---------------|---------------|---------------|
|----------3----|---------------|---1/2-1/2-----|----------3--0-|
|----4--------4-|---------3-----|------------2--|---------------|
|----4----------|----4------4---|--------------2|-------2-------|
|-2-----2-------|----4--------4p|-0-------------|----2----------|
|---------------|-2-----2-------|---------------|-0-------------|

2x
 Hm              F#              A               E         
|---------------|---------------|---------------|----------0----|
|----------3----|---------------|---1/2-1/2-----|-------------0-|
|----4--------4-|---------3-----|------------2--|---------------|
|----4----------|----4------4---|--------------2|-------2-------|
|-2-----2-------|----4--------4p|-0-------------|----2----------|
|---------------|-2-----2-------|---------------|-0-------------|

*****************************************************************
Chorus:
1x
 D               A               E               F# 
|--------2------|---------------|--------1------|---------------|
|---3-------3---|-----1/2-------|-----------0---|---------------|
|---2-----------|---2-------2---|---------------|--------3------|
|-0----0--------|---2-----------|---2-----------|---4------4----|
|---------------|-0-------------|---2-----------|---4-----------|
|---------------|---------------|-0----0--------|-2---2---------|

1x
 D               A               E          F#    
|--------2------|---------------|-------0---2---|
|---3-------3---|-----1/2-------|---------0-3---|
|---2-----------|---2-------2---|-----------4---|
|-0----0--------|---2-----------|---2-------4---|
|---------------|-0-------------|---2-------2---|
|---------------|---------------|-0---0---------|

*****************************************************************
Interlude
2x staccato
 F#              D               A               E 
|2------2-------|2------2-------|0------0-------|0------0-------|
|3------3-------|3------3-------|2------2-------|0------0-------|
|4------4-------|3------2-------|2------2-------|1------1-------|
|4------4-------|0------0-------|2------2-------|2------2-------|
|2------2-------|---------------|0------0-------|2------2-------|
|---------------|---------------|---------------|---------------|

2x open playing (rythm is nearly the same like in the strophe)
 F#              D               A               
|2------2-------|2------2-------|0------0-------|
|3------3-------|3------3-------|2------2-------|
|4------4-------|3------2-------|2------2-------|
|4------4-------|0------0-------|2------2-------|
|2------2-------|---------------|0------0-------|
|---------------|---------------|---------------|

*****************************************************************
strophe
2x
 Hm              F#              A               E        
|---------------|---------------|---------------|---------------|
|----------3----|---------------|---1/2-1/2-----|----------3--0-|
|----4--------4-|---------3-----|------------2--|---------------|
|----4----------|----4------4---|--------------2|-------2-------|
|-2-----2-------|----4--------4p|-0-------------|----2----------|
|---------------|-2-----2-------|---------------|-0-------------|

2x
 Hm              F#              A               E         
|---------------|---------------|---------------|----------0----|
|----------3----|---------------|---1/2-1/2-----|-------------0-|
|----4--------4-|---------3-----|------------2--|---------------|
|----4----------|----4------4---|--------------2|-------2-------|
|-2-----2-------|----4--------4p|-0-------------|----2----------|
|---------------|-2-----2-------|---------------|-0-------------|

*****************************************************************
Chorus:
1x
 D               A               E               F# 
|--------2------|---------------|--------1------|---------------|
|---3-------3---|-----1/2-------|-----------0---|---------------|
|---2-----------|---2-------2---|---------------|--------3------|
|-0----0--------|---2-----------|---2-----------|---4------4----|
|---------------|-0-------------|---2-----------|---4-----------|
|---------------|---------------|-0----0--------|-2---2---------|

1x
 D               A               E               
|--------2------|---------------|--------1------|
|---3-------3---|-----1/2-------|-----------0---|
|---2-----------|---2-------2---|---------------|
|-0----0--------|---2-----------|---2-----------|
|---------------|-0-------------|---2-----------|
|---------------|---------------|-0----0--------|

*****************************************************************
Interlude
2x staccato
 F#              D               A               E 
|2------2-------|2------2-------|0------0-------|0------0-------|
|3------3-------|3------3-------|2------2-------|0------0-------|
|4------4-------|3------2-------|2------2-------|1------1-------|
|4------4-------|0------0-------|2------2-------|2------2-------|
|2------2-------|---------------|0------0-------|2------2-------|
|---------------|---------------|---------------|---------------|

2x open playing (rythm is nearly the same like in the strophe)
 F#              D               A               
|2------2-------|2------2-------|0------0-------|
|3------3-------|3------3-------|2------2-------|
|4------4-------|3------2-------|2------2-------|
|4------4-------|0------0-------|2------2-------|
|2------2-------|---------------|0------0-------|
|---------------|---------------|---------------|

*****************************************************************
outro
1x
 Hm              F#              A               E       
|---------------|---------------|---------------|---------------|
|----------3----|---------------|---1/2-1/2-----|----------3--0-|
|----4--------4-|---------3-----|------------2--|---------------|
|----4----------|----4------4---|--------------2|-------2-------|
|-2-----2-------|----4--------4p|-0-------------|----2----------|
|---------------|-2-----2-------|---------------|-0-------------|

1x
 Hm              F#              A               E       
|---------------|---------------|---------------|----------0----|
|----------3----|---------------|---1/2-1/2-----|-------------0-|
|----4--------4-|---------3-----|------------2--|---------------|
|----4----------|----4------4---|--------------2|-------2-------|
|-2-----2-------|----4--------4p|-0-------------|----2----------|
|---------------|-2-----2-------|---------------|-0-------------|

1x
 Hm
|---------|
|---------|
|---------|
|---------|
|-2-------|
|---------|

*****************************************************************
*****************************************************************

Related for Man Must Dance tab