Guitaretab - guitar tabs
Song name
# A B C D E F G H I J K L M N O P Q R S T U V W X Y Z

Johnossi - Summerbreeze tab

****************
****Johnossi****
**Summerbreeze**
****Johnossi****
****************

Standard Tuning
CAPO 4th

Chords:
G   320033
Em  022000
C   x32010
D   xx0232


Intro/Verse
E|----3----------|-------0-------|----3----------|---------------|
B|------3---3----|---------0-----|------3---3----|-------0-------|
G|------------0--|----0------0---|------------0--|----0----0-----|
D|--------0------|-------------2-|--------0------|-----------0---|
A|---------------|---------------|---------------|-------------2-|
E|-3-------------|-0-------------|-3-------------|-0-------------|
   G               Em              G               Em
E|----3----------|---------0-----|----3----------|--------0------|
B|------3---3----|---0-------0---|------3---3----|------0----0---|
G|------------0--|-----0-------0-|------------0--|----0----------|
D|--------0------|-------0-------|--------0------|---------------|
A|---------------|---------------|---------------|---------------|
E|-3-------------|-0-------------|-3-------------|-0-------------|
   G               Em              G               Em
E|---------------|---------------|---------------|---------------|
B|---------------|---------------|---------------|---------------|
G|--0------------|---------------|---------------|---------------|
D|-----2---------|---------------|---------------|---------------|
A|--------2---2--|---------------|---------------|---------------|
E|-----------0---|---------------|---------------|---------------|
    Em


Bridge
E|---------------|---------2h3-3-|---------------|-------0-------|
B|-----1-----1---|-----3---------|-3-----3-----3-|---------0-----|
G|------0-----0--|---2---2-------|---2----0--0---|-----0-----0---|
D|---2----0h2--2-|-0-------------|---------------|-------------2-|
A|-3-------------|---------------|---------------|---------------|
E|---------------|---------------|-----3----2----|--0------------|
   C               D               G              Em	  
E|---------------|---------2h3-3-|---------------|----2h3-3------|
B|-----1-----1---|-----3---------|--3------------|-----------3---|
G|------0-----0--|-------2-------|-----2---------|-2-----------2-|
D|---2----0h2--2-|-0-------------|--------0------|---------------|
A|-3-------------|---------------|---------------|---------------|
E|---------------|---------------|---------------|---------------|
   C               D               D               D	  
  
Chorus
E|---------------|-------2-------|---------------|-------0-------|
B|-----1-----1---|-----3----3----|-------3-------|-----0---0-----|
G|------0-----0--|---2--------2--|-----0---0-----|---0-------0---|
D|---2----0h2--2-|-0-------------|---0-------0---|-------------2-|
A|-3-------------|---------------|-2-----------2-|---------------|
E|---------------|---------------|---------------|-0-------------|
   C               D               G               Em  
E|---------------|------------2--|---------------|---------------|
B|-----1---------|------3--------|--3---------3--|---------------|
G|------0--------|----2---0h2----|-----2---------|-----2---------|
D|---2-----------|-0-------------|--------0------|--0------------|
A|-3-------2--0--|---------------|---------------|---------------|
E|---------------|---------------|---------------|---------------|
   C               D               D               D-
[ Tab from: http://www.guitaretab.com/j/johnossi/80640.html ]
Solo
E|----3----------|------------|----3----------|---------------|
B|------3---3----|-------3--0----|------3---3----|------3/5-0----|
G|------------0--|----0---------|------------0--|----0---------|
D|--------0------|-------------|--------0------|--------------|
A|---------------|---------------|---------------|--------------|
E|-3-------------|-0-------------|-3-------------|-0-------------|
   G               Em              G               Em
E|----3----------|------3-0------|----3----------|-------------|
B|------3---3----|----(3)-----|------3---3----|--------------|
G|------------0--|---0--------|------------0--|----5p4-----|
D|--------0------|--------------|--------0------|--------5p4--|
A|---------------|---------------|---------------|---------------|
E|-3-------------|-0-------------|-3-------------|-0-------------|
   G               Em              G               Em

Outro
E|----3----------|-------0-------|---------------|---------2h3-3-|
B|------3---3----|---------0-----|-----1-----1---|-----3---------|
G|---------------|----0------0---|------0-----0--|---2---2-------|
D|--------0------|-------------2-|---2----0h2--2-|-0-------------|
A|---------------|---------------|-3-------------|---------------|
E|-3----------2--|-0-------------|---------------|---------------|
   G               Em              C               D
E|----3----------|-------0-------|---------------|---------2h3-3-|
B|------3---3----|---------0-----|-----1-----1---|-----3---------|
G|---------------|----0------0---|------0-----0--|---2---2-------|
D|--------0------|-------------2-|---2----0h2--2-|-0-------------|
A|---------------|---------------|-3-------------|---------------|
E|-3----------2--|-0-------------|---------------|---------------|
   G               Em              C               D
E|---------------|--3p2---2------|----0h2--------|---------------|
B|---------3-----|------3---3----|--------3------|-----3---------|
G|-2---0h2---2---|------------2--|----------0----|-0h2---2-------|
D|---0-----------|---------------|-0-------------|---------0-----|
A|---------------|---------------|---------------|---------------|
E|---------------|---------------|---------------|-----------3~~~|
   D               D               D               D


[Intro]

[Verse]
       G                 Em
Once a failure, always a retard
G              Em
go through the books just read
          G                           Em
I went to school with an offer for my teacher 
           G                  Em
he thought, please dont look down on me, but I will

[Bridge]
Oh, oh, oh oh

[Verse]
        G                      Em
I dont care about your modern decoration 
        G                                 Em
in your home so why should you care about mine
         G                             Em
Ive had enough of this comfort conversation
       G                         Em
in my mind youre all retards anyhow

[Chorus]
                   C             
Cause if you think love will come towards you
       D
like a warm summerbreeze 
             G
you got your head among the clouds 
              Em
and you will never be free
          
youll spend
C             D 
  many nights alone, ow-oh, ow-ahhh
    D       D
I know

[Solo]

[Verse]
If you dont feel the way I do it dont matter
cause, Ill never know how you feel 
but if you do then sure Id be flattered
in my mind its all different anyhow

[Chorus]
I think love will come towards me
like a warm summerbreeze 
I got my head among the clouds 
and I will never be free
Ill spend 
many nights alone, ow-oh, ow-ahh
I know

[Outro]
I know cause I have and I will.
Related for Summerbreeze tab