Guitaretab - guitar tabs
Song name
# A B C D E F G H I J K L M N O P Q R S T U V W X Y Z

Johnoy Danao - Ikaw At Ako tab

Original Setup: Half-Step Down Tuning. Capo on 3rd.
Alternative Setup: Standard Tuning. Capo on 2nd.
Chords and tab relative to capo.

Chord List:
    G    F#dim7   Em   D#dim    C     G/B    Am7   Am7/D  C#dim7  Eaug
E |-3-|  |-5-|  |-3-|  |-2-|  |-0-|  |-x-|  |-0-|  |-0-|  |-x-|  |-x-|
B |-0-|  |-4-|  |-0-|  |-1-|  |-1-|  |-3-|  |-1-|  |-1-|  |-5-|  |-1-|
G |-0-|  |-5-|  |-0-|  |-2-|  |-0-|  |-0-|  |-0-|  |-2-|  |-3-|  |-1-|
D |-0-|  |-4-|  |-2-|  |-1-|  |-2-|  |-0-|  |-2-|  |-0-|  |-5-|  |-2-|
A |-x-|  |-x-|  |-x-|  |-x-|  |-3-|  |-2-|  |-0-|  |-0-|  |-4-|  |-x-|
E |-3-|  |-x-|  |-x-|  |-x-|  |-x-|  |-x-|  |-x-|  |-x-|  |-x-|  |-x-|

  F#m/A    A     Em*    CM7    Baug  A7sus2  Bm7     Am   Asus4  B6add9
E |-x-|  |-0-|  |-0-|  |-0-|  |-0-|  |-0-|  |-2-|  |-0-|  |-x-|  |-2-|
B |-x-|  |-2-|  |-0-|  |-0-|  |-0-|  |-0-|  |-3-|  |-1-|  |-2-|  |-2-|
G |-2-|  |-2-|  |-0-|  |-0-|  |-0-|  |-0-|  |-2-|  |-2-|  |-3-|  |-1-|
D |-4-|  |-2-|  |-2-|  |-2-|  |-1-|  |-2-|  |-4-|  |-2-|  |-0-|  |-1-|
A |-0-|  |-0-|  |-2-|  |-3-|  |-2-|  |-0-|  |-2-|  |-0-|  |-0-|  |-2-|
E |-x-|  |-x-|  |-0-|  |-x-|  |-x-|  |-x-|  |-x-|  |-x-|  |-x-|  |-x-|

Intro:
   G               F#dim7          Em                D#dim7
|--3-------3-----3-5-------5-----5-3-------3-----3/2-2-------2------|
|------0-3---0-3-------4-------4-------0-------0---------1-------1--|
|----0---------------5---5---5-------0---0---0---------2---2---2----|
|------------------4---------------2-----------------1--------------|
|-------------------------------------------------------------------|
|--3----------------------------------------------------------------|
   C               G/B             Am7       Am7/D G
|--0-------0-----0---------------------------3----------------------|
|------1-------1---3-------3-----3-1-----1---1---------0---3--------|
|----0---0---0---------0-------0-------0-----2-------0---0----------|
|--------------------0---0---0-------2-------0----------------------|
|--3---------------2---------------0---------0----------------------|
|--------------------------------------------------3----------------|

Verse:
   G               F#dim7          Em                D#dim7
|--3-------------3-5-------5-------3-------3-----3/2-2-------2------|
|------0---3---0-------4---------------0-------0---------1----------|
|----0---0---0-------5---5-----5-----0---0---0---------2---2--------|
|------------------4---------4-----2-----------------1--------------|
|-------------------------------------------------------------------|
|--3----------------------------------------------------------------|
   C               G/B           Am7             Am7/D
|----------0---------------------------------------------0----------|
|--1---1-------1---3-------3-----1-------1-----1-1-----1------------|
|----0---0---0---------0-------------0-------0-------2--------------|
|----------------------------------2---2---2-----0-0----------------|
|--3---------------2-2---2-------0----------------------------------|
|-------------------------------------------------------------------|
   G               F#dim7        Em              D#dim7
|--3-------3-----3-5-------5-----3-------3-----3---------2----------|
|------3-0---0-3-------4-------------0-------0---1---1--------------|
|----0---------------5---5---------0---0---0-------2---2------------|
|------------------4-------------2---------------1------------------|
|-------------------------------------------------------------------|
|--3----------------------------------------------------------------|
   C               G/B     Am7 G
|--0-------0---------------0----------------------------------------|
|------1-------1---3-----3-1---------0-3----------------------------|
|----0---0---0---0-----0---0-------0--------------------------------|
|--------------------0-----2-----0----------------------------------|
|--3---------------2-------0----------------------------------------|
|------------------------------3------------------------------------|

Chorus:
   C       C#dim7    G       Eaug  Am7     F#m/A   G         A   Em*
|--------0----------------------------------------------------------|
|------1-----------5-------0-1---0-1-----1---------------0-------0--|
|--0-0-----3-----3-------0-----1-------0---2-----2-0---0-----2-0----|
|--------------5-------0-----2-------2-------0-4-----0--------------|
|--3-------4-4---------------------0-------0-----------------0---2--|
|--------------------3-----------------------------3----------------|
   CM7 Baug    A7sus2  A7    C   Bm7 Am7 Am7/D   G
|--0-------------------0-----0---2---0---0-----------------3--------|
|--0---------0-------0-2-----1---3---1---1-----------3-0------------|
|--0-------0-------0---0-----0---2---0---2---------0----------------|
|--2-----1-------2-----2-----2---4---2---0--------------------------|
|--3---2---------------0-----3---2---0---0--------------------------|
|--------------0---------------------------------3------------------|
[ Tab from: http://www.guitaretab.com/j/johnoy-danao/276184.html ]
Interlude:
   C       C#dim7    G       Eaug  Am7     Am7/D G
|--------0---------------------------------0------------------------|
|------1-----------5-------0-1---0-1-----1-1-------------0----------|
|--0-0-----3-----3-------0-----1-------0---2---------0--------------|
|--------------5-------0-----2-------2-----0-------0---0------------|
|--3-------4-4---------------------0--------------------------------|
|--------------------3---------------------------3------------------|

Verse:
   G               F#dim7          Em                D#dim7
|--3-------3-----3-5-------5-----5-3-------3-----3/2-2-------2------|
|------0-------0-------4-------4-------0-------0---------1-------1--|
|----0---0---0-------5---5---5-------0---0---0---------2---2---2----|
|------------------4---------------2-----------------1--------------|
|-------------------------------------------------------------------|
|--3----------------------------------------------------------------|
   C               G/B             Am7             Am7/D
|--0-------0-------------------------------0---------------0--------|
|------1-------1---3-------3-----3-1-----1-------1-1-----1----------|
|----0---0---0---------0-------0-------0-------0---2---2------------|
|--------------------0---0---0-------2-------2-------0--------------|
|--3---------------2---------------0---------------0----------------|
|-------------------------------------------------------------------|
   G               F#dim7          Em              D#dim7
|----------3-----3-5-------5-----5-3-------3-----3-2-------2--------|
|--------0-----0-------4-------4-------0-------0-------1-------1----|
|------0-----0-------5---5---5-------0---0---0-------2---2---2------|
|----0-------------4---------------2---------------1----------------|
|-------------------------------------------------------------------|
|--3----------------------------------------------------------------|
   C             G/B       Am7     G
|----------0--------------------------------------------------------|
|------1-------1---3-----3-1-----1-----0---3------------------------|
|--0-0---0---0---------0-------0------------------------------------|
|--------------------0-------2-------0---0--------------------------|
|--3-------------2-2-------0----------------------------------------|
|----------------------------------3--------------------------------|

Chorus:
   C       C#dim7  G       Eaug  Am7     F#m/A   G       A   Em*
|--------0----------------------------------------------------------|
|------1---5-----5-0-----0-1---0-1-----1---------------0-----0------|
|----0---------3-------0-----1-------0---2-----2-0---0---2-0--------|
|------------5-------0-----2-------2-------0-4-----0----------------|
|--3-------4---------------------0-------0---------------0---2------|
|------------------3-----------------------------3------------------|
   CM7     Baug    A7sus2  A7          Am7 Bm7 Am7 Am7/D   G
|--------0-------------------------0---0---2------------------------|
|----------------0-------0-------2-2---1---3---1---1---------0---3--|
|------0-------0-------0-------0---0---0---2---0---2-------0---0----|
|----3-------1-------2-------2-----2---2---4---2---0----------------|
|--2-------2---------------0-------0---0---2---0---0----------------|
|------------------0---------------------------------------3--------|

Bridge:
   Em*             B7              Em*              A7sus2  A7
|-----------------------------------------------------------3-------|
|--0-------0-----0---------0-----0---------0--------------0-2-------|
|------0-------0-------2-------2-------0-------0--------0---0-------|
|----2---2---2-------1---1---1-------2---2---2---2----2-----2-------|
|------------------2--------------------------------0-------0-------|
|--0-------------------------------0--------------------------------|
   Am7 Bm7 Am7 Am7/D G
|--0---2---0---0----------------------------------------------------|
|--2---3---2---2-----------0-3--------------------------------------|
|--0---2---0---1---------0------------------------------------------|
|--1---4---1---0-------0--------------------------------------------|
|--0---2---0---0----------------------------------------------------|
|--------------------3----------------------------------------------|

Chorus:
   C       C#dim7  G       Eaug  Am7     F#m/A   G       A   Em*
|--------0----------------------------------------------------------|
|------1---5-------------0-1---0-1-----1---------------0-----0------|
|----0---------3-------0-----1-------0---------2-----0---2-0--------|
|------------5---5---0-----2-------2-------0-4-----0----------------|
|--3-------4---------------------0-----------------------0---2------|
|------------------3---------------------0-------3------------------|
   CM7     Baug    A7sus2          A7    CM7     Em*     A7sus2  A7
|--0-----0-------------------------3-----------0-----------------0--|
|--0-------------0-0-----0-------0-2---------0---------0-------0-2--|
|--0---0-------0-------0-------0---0-----------------0-------0---0--|
|--2-2-------1-------2-------2-----2-------2-------2-------2-----2--|
|--3-------2---------------0-------0-----3-------2---------------0--|
|------------------0-------------------------------------0----------|

Coda:
   Am7 Am    Asus4    B6add9
|----0-0--------------------2-------2-------------------------------|
|---1--1-----3------------2---2-----2-------------------------------|
|--0---2-----2----------1-------1---1-------------------------------|
|--2---2-----0--------1-------------1-------------------------------|
|--0---0-----0----------------------2-------------------------------|
|-------------------------------------------------------------------|
Related for Ikaw At Ako tab
Ikaw At Ako chords by Johnoy Danao