Guitaretab - guitar tabs
Song name
# A B C D E F G H I J K L M N O P Q R S T U V W X Y Z

Johns Mistress - Boring Day tab

Song : Boring Day
Band : John's Mistress (Malaysia)
Tabbed By : Diamond Jerry (Raptureboy182@yahoo.com)

Great band!!...enjoy with this tabs....


Standard Tuning
------------------------------------------------------------------------------

[Intro]

(Riff)
e|----------------------0----------------------------------------------------|
B|--3----3~--3------2------2------0-----0-----0-----0-----0--2---------------|
G|----2--------2------2------2------0-----0-----0-----0----------------------|
D|------0--0------------2------0~------0-----0-----0-----0----------(4x)-----|
A|---------------------------------------------------------------------------|
E|---------------------------------------------------------------------------|

(guitar2)
e|-----------------|---------------------------------------------------------|
B|-----------------|---------------------------------------------------------|
G|--7~-------------|----7-7xx-77---------------------------------------------|
D|--7~---55555555--|----7-7xx-77----7-7xx-77----9-9xx-99----5-5-xx-55---(2x)-|
A|--5~---55555555--|----5-5xx-55----7-7xx-77----9-9xx-99----5-5-xx-55--------|
E|-------33333333--|----------------5-5xx-55----7-7xx-77----3-3-xx-33--------|


[Verse] Palm mute..... (Play riff x1 on the fourth time)
e|---------------------------------------------------------------------------|
B|---------------------------------------------------------------------------|
G|---77777777----------------------------------------------------------------|
D|---77777777---77777777---99999999---55555555------(4x)---------------------|
A|---55555555---77777777---99999999---55555555-------------------------------|
E|--------------55555555---77777777---33333333-------------------------------|

[ Tab from: http://www.guitaretab.com/j/johns-mistress/46601.html ]
[Chorus]
e|------------------------------------------|
B|------------------------------------------|
G|----7-7-----------------------------------|
D|----7-7----7-77----9-9----5-55----(8x)----|
A|----5-5----7-77----9-9----5-55------------|
E|-----------5-55----7-7----3-33------------|


-repeat intro-
-repeat verse,chorus-


[Solo] chord same as chorus
e|---------------------------------------------------------------------------|
B|---------------------------------------------------------------------------|
G|------------------------11~-----11-h12~--11-12-11--------------------------|
D|---12--12--h14~---12-14-------14---------------------(2x)------------------|
A|-----12--------------------------------------------------------------------|
E|---------------------------------------------------------------------------|

e|-------------10-----------------------------------12------------12---------|
B|--10h12-10h12--(repeat several times)--10h12-10h12---10h12-10h12-----------|
G|-------------------------------------------------------------------12------|
D|---------------------------------------------------------------------9-h12~|
A|---------------------------------------------------------------------------|
E|---------------------------------------------------------------------------|

[Outro]
e|---------------------------------------------------------------------------|
B|---------------------------------------------------------------------------|
G|----7-7----------------------------------7-7---------------------------7~--|
D|----7-7----7-77----9-9----5-55----(3x)---7-7---7-77---9-9-9-9-9-9-9-9--7~--|
A|----5-5----7-77----9-9----5-55-----------5-5---7-77---9-9-9-9-9-9-9-9--5~--|
E|-----------5-55----7-7----3-33-----------------5-77---7-7-7-7-7-7-7-7------|

------------------------------------------------------------------------------

Any comments or corrections,just mail me to Raptureboy182@yahoo.com/ICQ #115343571