Song name
# A B C D E F G H I J K L M N O P Q R S T U V W X Y Z

Johnson Eric - East Wes tab

Gtr I (E A D G B E) - 'Eric Johnson Clean Electric'
Gtr II (E A D G B E) - 'Gtr I  w/overdrive'
Gtr III (E A D G B E) - 'swell fills (w/vol pedal)'

 Q=114
 4/4
  Gtr I
                   ~                ~                ~
  E E  Q     E E E E +H       E E E E +H       E E E E +H
|----------|----------------|----------------|---------------|
|----------|-------3-(3)----|-------3-(3)----|-------3-(3)---|
|---x------|-----2----------|-----2----------|-----2---------|
|---x------|---5------------|---4------------|---5-----------|
|---x------|----------------|----------------|---------------|
|-----12\--|-0--------------|-0--------------|-0-------------|


                                ~                                    ~
  E E E E E  E  a E a E   E E E E +H       E E E E +E  E E e   E E E E +H
|-----------------------|----------------|-------------------|---------------|
|-------3---------------|-------3-(3)----|-------3-(3)-------|-------3-(3)---|
|-----2-----------------|-----2----------|-----2-------------|-----2---------|
|---4-----------0h2-0h2-|---4------------|---4-----------0-2-|---5-----------|
|-----------(2)---------|----------------|-------------2-----|---------------|
|-0---------------------|-0--------------|-0-----------------|-0-------------|


  E E E E  E  E E E     a  E Q  E +Q   E E
|-------------------||---------------------|
|-------3p(0)-------||-11s12----3-(3)------|
|-----2-----------9-||----------2-(2)------|
|---4-----------9---||--8s=9----5-(5)------|
|-----------------7-||-------------------x-|
|-0-------------7---||---------------------|


  Q   E  E  E  E  E  E    a  E E E E +Q.   E
|----------------10-12-|-----------------------|
|-3p=(0)---10-12-------|-11s12-----3-(3)-------|
|-2---------------7--9-|-----------2-(2)-------|
|-4---------7--9-------|--8s=9-----5-(5)-------|
|----------------------|-----------------------|
|----------------------|---------0-------------|


    E  E E E +E  E E E    a  E Q  E +E  Q  E
|----------------------|---------------------|
|----------3-(3)-------|-11s12----3-(3)------|
|--------2-------------|-10s11----2-(2)------|
|------4-----------9---|--8s=9----5-(5)------|
|----------------------|---------------------|
|-<12>-------------7---|-------------------0-|


  Q.   E  E  E  E  E    a  E Q  H    E
|-----------10-12-14-|-------------------|
|-3------12----------|-11s12----3--------|
|-2----------7--9-11-|----------2--------|
|-4-------9----------|--8s=9----5--------|
|--------------------|-------------------|
|--------------------|-------------------|


           ~
    E  E E E +H       a  H     Q.   E
|-------------------|----------0------|
|----------3-(3)----|-8s10----12------|
|--------2----------|-7s=9------------|
|------4------------|-----------------|
|-------------------|-----------------|
|-<12>--------------|-----------------|


  a  Q   E E  a  E  E  E  a  E   E   E  E E +H
|------------------------------|-------------------|
|---------------------10-------|----------3-(3)----|
|-9h11-------10s11-12----10s11-|----------2-(2)----|
|-9-(9)----9-------------------|--------5----------|
|------------------------------|-------------------|
|------------------------------|---<12>------------|


                                                             ~
  E E E E +Q   Q    H    E Q   E   +Q.   E E E E a E   E E E E +H
|-----------------|-----------!0-|-(0)---------------|----------------|
|-------3-(3)-----|-8----8----!7-|-(7)---------------|-------3-(3)----|
|-----2-----------|-9----9----!9-|-(9)---------------|-----2----------|
|---4-------------|-7----7----!9-|-(9)---------0-0h2-|---5------------|
|-----------------|-----------!9-|-(9)-----2-2-------|----------------|
|-0---------------|-8----8-------|-------------------|-0--------------|


                                ~
                                                            |--3--|
  E E E E +E  E a E a E   E E E E +H        E  E E E +E  E  E  E  E
|-----------------------|----------------|--------------------------||
|-------3-(3)-----------|-------3-(3)----|---------3-(3)------------||
|-----2-----------------|-----2----------|-------2---------------12-||
|---4-----------0h2-0h2-|---5------------|-----4--------------14----||
|-------------2---------|----------------|-----------------14-------||
|-0---------------------|-0--------------|-(0)----------------------||


                     ~~~
   |--3--|
   S  S  S  S  S  S  E.  +E   S  S  S  E.
|-----------------------------------------|
|-----------------------------------------|
|-14h15p14-12-----------------------------|
|-------------14-14-14--(14)-12-----------|
|-------------------------------14-12-10--|
|-----------------------------------------|


                                        ~
   +Q   E E  a  E  E  e  a  E    +E  Q  E +Q.   E
|-----------------------------|--------------------|
|--------------------10-------|---------3-(3)------|
|-----------10s11-12----10s11-|-(11)----2-(2)------|
|---------9-------------------|--------------------|
|-(10)------------------------|--------------------|
|-----------------------------|--------------------|


                    |--3--|
    E  E E E +E  E  E  E  E
|---------------------------|
|----------3-(3)------------|
|--------2---------------12-|
|------4--------------14----|
|------------------14-------|
|-<12>----------------------|


   |------6-------|        |--3--|  |--3--|        |------6-------|
   S  S  S  S  S  S  S  S  S  S  S  S  S  S  S  S  S  S  S  S  S  S
|-------------------------------------------------12-----------------|
|-------15-------------------15----------------------15--------------|
|-14s16----16s14p12----14h16----16p14s12----14h16-------16s14p12-----|
|-------------------14-------------------14----------------------14--|
|--------------------------------------------------------------------|
|--------------------------------------------------------------------|


   |------6-------|
   S  S  S  S  S  S  S  a  E.  E  E  a  E  E
|--------------------------------------------|
|--------------------------------------------|
|-14-12----------------10s11--12-14-10s11----|
|-------14-12----12-14--------------------12-|
|-------------14-----------------------------|
|--------------------------------------------|


         ~
   Q   E E +Q.   E   E E E E +E  Q.
|------------------|-------------------|
|--------3-(3)-----|-------3-(3)-------|
|--------2-(2)-----|-----2-------------|
|--------5-(5)-----|---4---------------|
|-14\--------------|-------------------|
|------0-----------|-0-----------------|


  Q  E E  Q.   E   Q  E E a E E  E a E   Q  E E +Q.   E
|-5-------7------|---------------------|-----------------|
|-5-------8------|-7------6s7-8-10-6s7-|------3-(3)------|
|----------------|---------------------|------2-(2)------|

|-7------10------|-9----9--------------|----5------------|
|------7---------|-5-------------------|-----------------|
|----------------|---------------------|-----------------|


                                            ~                    ~
  E E E E +E  Q.     Q.   E  E  E S  S  E   H    E E E E   E E E E +H
|------------------|----------------------|-0------------|----------------|
|-------3-(3)------|-8-------x------------|-0------------|-------3-(3)----|
|-----2------------|-9-------x----9h11----|--------------|-----2----------|
|---4--------------|-7-------x----9----12-|----------0-2-|---2------------|
|------------------|-----------12---------|------2-2-----|----------------|
|------------------|-8----8/--------------|--------------|----------------|


                                ~
  E E E E +E  E a E a E   E E E E +H       E E E E +Q.   E
|-----------------------|----------------|------------------||
|-------3-(3)-----------|-------3-(3)----|-------3-(3)------||
|-----2-----------------|-----2----------|-----2------------||
|---4-----------0h2-0h2-|---5------------|---4--------------||
|-------------2---------|----------------|------------------||
|-----------------------|----------------|------------------||


  Gtr II
   ~~     ~~
   Q   e  E  +Q    E  E    Q.    E  E  E  E  E
|-12--14----------------|----------15-14-------|
|--------12-(12)--------|-15----12-------15-12-|
|-----------------14----|----------------------|
|--------------------12-|----------------------|
|-----------------------|----------------------|
|-----------------------|----------------------|


   ~~     ~~               ~~~
   Q   e  E  +Q    E  E    Q.   E  a  Q   E  E
|-12--14----------------|---------15s17--15-14-|
|--------12-(12)--------|-15-------------------|
|--------------------14-|----------------------|
|-----------------12----|----------------------|
|-----------------------|----------------------|
|-----------------------|----------------------|


             ~~               ~~~
   a  Q   e  E  +Q    E  E    Q.    E  E  E  E  E
|--------14----------------|----------15-14----14-|
|-15h17-----12-(12)--------|-15----12-------15----|
|--------------------14----|----------------------|
|-----------------------12-|----------------------|
|--------------------------|----------------------|
|--------------------------|----------------------|


      ~~     ~~
   a  Q   e  E  +Q    E  E    E E  S  S  S  S  S  S  S  S  S  S  S  S
|--------14----------------|-------------------------------------------|
|-15h17-----12-(12)--------|-15------------------------------------15--|
|-----------------------14-|------------------------------12-14-16-----|
|--------------------12----|------------------12-14----14--------------|
|--------------------------|------12----12-14-------14-----------------|
|--------------------------|---------15--------------------------------|


   ~~
   Q   E  Q.    E  E    H     E  E  E  E
|-----14-------------|-------15-14----14-|
|-17-----12----------|-15----------15----|
|--------------14----|-------------------|
|-----------------12-|-------------------|
|--------------------|-------------------|
|--------------------|-------------------|


   Q   E  Q.    E  E    Q.   E  Q   E  E
|-12--14-------------|---------17--15-17-|
|--------12----------|-15----------------|
|--------------14----|-------------------|
|-----------------12-|-------------------|
|--------------------|-------------------|
|--------------------|-------------------|


   ~~~~~~     T           T
   Q       E  Q.       E  E        H     E  E  E  E
|-12(24)--14--------------------|-------14-15----14-|
|------------12(24)-------------|-15----------15----|
|---------------------14--------|-------------------|
|------------------------12(24)-|-------------------|
|-------------------------------|-------------------|
|-------------------------------|-------------------|


                                Gtr I
          T
   Q   E  Q.       E  E    Q.   E E E  E E
|-12--14----------------|------------------|
|--------12(24)---------|-15----------10---|
|-----------------14----|---------7-9------|
|--------------------12-|--------------7---|
|-----------------------|---------5-7------|
|-----------------------|------------------|


   a  Q  E E +H       Q.   E E  E  E  E
|-------------------|-------------10-12-|
|-11s12----3-(3)----|-3--------10-------|
|----------2-(2)----|-2------9-----7--9-|
|--8s=9----5-(5)----|-4---------7-------|
|-------------------|--------7----------|
|-------------------|-------------------|


   a  Q  E E +H       E E E E +Q   E E
|-------------------|--------------------|
|-11s12----3-(3)----|-------3-(3)--------|
|----------2-(2)----|-----2--------------|
|--8s=9----5-(5)----|---4------------9---|
|-------------------|--------------------|
|-------------------|----------------7---|


  E E E E E E E  E    E  E  E  a  E E  E  E  a  S  S
|------------------|----10-12-13s14---12-10----------|
|-----------8---10-|-12---------------------10s11s10-|
|---7---9----------|-----7--9-10s11----9--7----------|
|-7---------5----7-|--9----------------------7s=8s=7-|
|---5---7----------|---------------------------------|
|-5----------------|---------------------------------|


  E  E E E E Q.     E E E E +Q   E  E
|-----------------|---------------------|
|-8-10------------|-------3-(3)---------|
|------9-7-4------|-----2---------------|
|-5--7------------|---4-----------------|
|------7-5-2------|----------------(7)--|
|-----------------|-0-------------------|


   H     +E  Q.      Q  E E a E E  E a E
|--7-----(7)------|-10-------------------|
|--8-----(8)------|--8------6s7-8-10-6s7-|
|--7-----(7)------|-11-------------------|
|-10----(10)------|--9----9--------------|
|-----------------|----------------------|
|-----------------|----------------------|


  E E E E +E  E E E   E E E E +E  Q.
|-------------------|-------------------|
|-------3-(3)-------|-------3-(3)-------|
|-----2-------2-----|-----2-------------|
|---5-----------5---|---4---------------|
|-------------------|-------------------|
|-------------------|-------------------|


                                             ~                ~
  Q.    E  Q  E  E   +Q.   E E E E E   E E E E +H       E E E E +Q   Q
|------------------|-----------------|----------------|-----------------|
|-8--------8----^7-|-(7)-------------|-------3-(3)----|-------3-(3)-----|
|-9--------9----^9-|-(9)-------------|-----2----------|-----2-----------|
|-7----(7)-7----^9-|-(9)---------0-2-|---5------------|---4-------------|
|---------------^9-|-(9)-----2-2-----|----------------|-----------------|
|-8--------8-------|-----------------|----------------|-0---------------|


  Gtr I
  Q.   Q   E  e E   Q  E  E  a E E  E a E
|-5-----------7---|-----------------------|
|-5-----------8---|-7--------6s7-8-10-6s7-|
|-5-----------7---|-----------------------|
|-7----------10---|-9-----9---------------|
|----------7------|-5---------------------|
|-----------------|-----------------------|
|
| Gtr III
| <           <     <          <
| h      q    q     q  e  e    h
|-5-----------3---|-2----------2----------|
|-----------------|-----------------------|
|-----------------|------(4)--------------|
|-----------------|-----------------------|
|-----------------|-----------------------|
|-----------------|-----------------------|


                            ~
  e e e e +e  e e e   e e e e +q.   e
|-------------------|-------------------|
|-------3-(3)-------|-------3-(3)-------|
|-----2-------2-----|-----2-------------|
|---5-----------5---|---4---------------|
|-------------------|-------------------|
|-------------------|-------------------|
|
| <                   <
| w                   w
|-------------------|-------------------|
|-0-----------------|-3-----------------|
|-------------------|-2-----------------|
|-------------------|-4-----------------|
|-------------------|-------------------|
|-------------------|-------------------|


  q.    e   e  e s  s  e    h      e e e e
|------------------------|-(0)-------------|
|-8---------x------------|-----------------|
|-9---------x----9h11----|-----------------|
|-7---------x----9----12-|-------------0-2-|
|-------------12---------|---------2-2-----|
|-8----(8)/--------------|-----------------|
|
| <
| w                        +q   q  q.    e
|-0----------------------|-(0)-------------|
|------------------------|-----------------|
|------------------------|---------7s====9-|
|------------------------|---------7s====9-|
|------------------------|-----------------|
|------------------------|-----------------|


          ~                  ~
   e  e e e +q.   e   e  e e e +q   e e
|-------------------|-------------------|
|---------3-(3)-----|--------3-(3)------|
|-------2-----------|------2------------|
|-----5-------------|----4--------------|
|-------------------|-------------------|
|-------------------|-----------------8-|
|
| +w                  h.            q
|-------------------|-------------------|
|-------------------|-------------------|
|-(9)s==============|=7-----------------|
|-(9)s==============|=7-----------------|
|-------------------|-------------------|
|-------------------|-------------------|


                t            t       t
   q.   e q  e  e         e  e     e e     +h
|---------------------|---7--------0--------------|
|-10------8-----------|---------------------------|
|--9------7-----------|---------------------------|
|--7------5-----7(19)-|------7(19)----------------|
|---------------------|--------------5(17)-(5)----|
|---------------------|---------------------------|
|
|  <      <     <
|                         ~~~~
|  q.   e q  e  e        +w
|---------------------|---------------------------|
|---------------------|---------------------------|
|---------7----11-----|-(11)----------------------|
|--7------------9-----|--(9)----------------------|
|---------------------|---------------------------|
|---------------------|---------------------------|


                           ~
   +q.   e e e e e   e e e e +q.   e
|------------------|-----------------|
|------------------|-------3-(3)-----|
|------------------|-----2-----------|
|--------------0-2-|---5-------------|
|--(5)-----2-2-----|-----------------|
|------------------|-----------------|
|
|  +h.         q     w
|------------------|-----------------|
|------------------|-----------------|
|-(11)-------------|-----------------|
|--(9)-------------|-----------------|
|------------------|-----------------|
|------------------|-----------------|


                                  ~
  e e e e +e   e  a e a e   e e e e +q.   e   e e e e +e  q.
|-------------------------|-----------------|-------------------|
|-------3-(3)-------------|-------3-(3)-----|-------3-(3)-------|
|-----2-------------------|-----2-----------|-----2-------------|
|---4-------------0h2-0h2-|---5-------------|---4---------------|
|-------------(2)---------|-----------------|-------------------|
|-------------------------|-----------------|-------------------|


     <     <          <            <
     q  e  e  +q   e  e    +q   e  e  +q   q
||----------------------|---------------------|
||o-14---------------12-|-(12)----------------|
||--14----14-(14)----12-|-(12)----12-(12)-----|
||--------14-(14)-------|---------12-(12)-----|
||o-16----12-(12)----14-|-(14)----10-(10)-----|
||----------------------|---------------------|

 ___________________________________________________
|1.
   <     <          <                        <
   q  e  e  +q   e  e    +q   e   e  +e   e  e  e
|---------------------|---------------------12------||
|-14---------------12-|-(12)----^15-(15)-12----15--o||
|-14----14-(14)----12-|-(12)----^12-(12)------------||
|-------14-(14)----16-|-(16)----^16-(16)------------||
|-16----12-(12)----14-|-(14)----^14-(14)-----------o||
|---------------------|-----------------------------||

  ___________
 |2.
                            ~~~~~~~~~~~~~~~
  e e e e +h         e  e e e +h       +w
|----------------|-------------------|--------*|
|-------3-(3)----|----------3-(3)----|-(3)----*|
|-----2----------|--------2----------|--------*|
|---2------------|------4------------|--------*|
|----------------|-------------------|--------*|
|----------------|-<12>--------------|--------*|
Tap to rate this tab
 
# A B C D E F G H I J K L M N O P Q R S T U V W X Y Z