Song name
# A B C D E F G H I J K L M N O P Q R S T U V W X Y Z

Johnson Robert - Theyre Red Hot tab

-------------------------------------------------------------------------------
			     They're Red Hot - Red Hot Chili Peppers
-------------------------------------------------------------------------------
Tabbed by:Greg Ferrigno
Email:Gregferrigno@yahoo.com

:--0-------33-332-2-2---1---0000-0---0-------33-332-2-2-2221-1-1-11x-0----|
:--1---4---22-221-1-1---0---1111-1---1---4---22-221-1-1-1110-0-0-00x-1----|
:--0---4---00-002-2-2-0-0-0-0000-0---0---4---00-002-2-2-2220-0-0-00x-0----|
:--2---4---22-22--0-0-0---2-2222-2---2---4---22-22--0-0-0000-0---00--2----|
:3-3-2-2-0------------x---3--------3-3-2-2-0-----------------x-------3----|
:---------------------3--------------------------------------3------------|


:0-5---5-4---4---0-------33-332-2-2---1---0000-0-2-2---1-|
:1-6---6-6---6---1---4---22-221-1-1-0-0---1111-1-1-1-0-0-|
:0-5---5-5---5---0---4---00-002-2-2-0-0-0-0000-0-2-2-0-0-|
:2-7---7-6---6---2---4---22-22--0-0-0---2--------0-0-0---|
:3-------------3-3-2-2-0------------x---3------------x---|
:-----------------------------------3----------------3---|

Play This ^ 3 times with this ending
:--0000-0-|
:--1111-1-|
:0-0000-0-|
:2--------|
:3--------|
:---------|

And the 4th time with this ending
:0-0-0-|
:1-1-1-|
:0-0-0-|
:2-2-2-|
:3-3-3-|
:------|
Tap to rate this tab
 
# A B C D E F G H I J K L M N O P Q R S T U V W X Y Z