Song name
# A B C D E F G H I J K L M N O P Q R S T U V W X Y Z

Joie De Vivre - Upper Deck San Diego tab

Song: "Upper Deck on San Diego"
Band: Joie De Vivre
Album: The North End 

Band link: http://www.myspace.com/joiedevivreband

Tabbed by Raphael Bastek

Here are the different parts that the guitars play
Not too sure on the chords at the end but they're close enough

Guitar 1 = A
Guitar 2 = B

-----
Part I-A (0:00-0:56)
-----

Eb|----------------------------------------------------------|
Bb|----------------------------------------------------------|
Gb|-1--1--1--1----0--0--0--0----3--3--3--3----1--1--0--0-----|
Db|---1--1--1--1----1--1--1--1----1--1--1--1----1--1--1--1---|
Ab|----------------------------------------------------------|
Eb|----------------------------------------------------------| x8

-----
Part I-B (0:14-0:56)
-----

(Play around with the rhythm of these notes,
I'm not exactly sure how it goes but this seemed close to me)

Eb|----------------------------------------------------------------------|
Bb|----------------------------------------------------------------------|
Gb|----8----8----8-------8----8---------12----12----12-------12----12----|
Db|-10---10---10---10-10---10---10---13----13----13----13-13----13----13-|
Ab|----------------------------------------------------------------------|
Eb|----------------------------------------------------------------------| x6

-----
Part II-A (0:57-1:54)
-----

Eb|----------------------------------------------------------|
Bb|----------------------------------------------------------|
Gb|----12----12----12----12------15----15----15----15--------|
Db|-13----13----13----13------15----15----15----15-----------|
Ab|----------------------------------------------------------|
Eb|----------------------------------------------------------|

Eb|----------------------------------------------------------|
Bb|----------------------------------------------------------|
Gb|----12----12----12----12------12-12-12-13-13-13-12--------|
Db|-13----13----13----13------13-----------------------------|
Ab|----------------------------------------------------------|
Eb|----------------------------------------------------------|

-----
Repeat Part I-A again once (1:55-2:01)
-----

-----
Repeat Part II-A again, distorted (2:01-2:29)
-----

-----
Part III-A (2:01-2:29)
-----
Chords:
A5, B5, D5, B5
Tap to rate this tab
 
# A B C D E F G H I J K L M N O P Q R S T U V W X Y Z