Song name
# A B C D E F G H I J K L M N O P Q R S T U V W X Y Z

Joie De Vivre - Upper Deck San Diego tab

Part 1

E|------------------------------------------------------------|
B|------------------------------------------------------------|
G|------------------------------------------------------------|
D|------0------0------0------0-----0-----0-----0-----0------0-|
A|--10-----10-----10-----10-----9-----9-----9-----9-----12----|
E|------------------------------------------------------------|

------------------------------------------------|
------------------------------------------------|
------------------------------------------------|
-----0------0------0------0------0-----0-----0--|
-12-----12-----12-----10-----10-----9-----9-----|
------------------------------------------------|

Part2, pick then downstrokes when drums kick in

E|-----------------------------------------------------------------|
B|-----------------------------------------------------------------|
G|---------------------------------------------------------------0-|
D|------0------0------0------0-----0-----0-----0-----0-----0-------|
A|-----------------------------------------------------------------|
E|--10-----10-----10-----10-----7-----7-----5-----5-----3-----3----|

-------------------------------------|
-------------------------------------|
----------------------0--------------|
----0-----0-----0-----------0-----0--|
-------------------------------------|
-3-----3-----3-----3-----3-----3-----|


part 1

ending

E|---------------------|
B|--10--5--7--3--5--3--|
G|--0---0--0--0--0--0--|
D|--0---0--0--0--0--0--|
A|---------------------|
E|--10--5--7--3--5--3--|
Tap to rate this tab
 
# A B C D E F G H I J K L M N O P Q R S T U V W X Y Z