Song name
# A B C D E F G H I J K L M N O P Q R S T U V W X Y Z

Joie De Vivre - Handshakes tab

Intro/Verse

E|---------------------------|
B|---------------------------|
G|------------------1--2--1--|
D|------7--6--4--6--2--2--2--|
A|------4--4--0--0-----------|
E|---------------------------|

Part2/Chorus (distorted)

E|-----------|
B|-----------|
G|--9--------|
D|--6--6--4--|
A|--7--4--0--|
E|-----------|

Bridge/ending (distorted)
E|--------|
B|--------|
G|-----1--|
D|--6--2--|
A|--7--2--|
E|--5--0--|
Tap to rate this tab
# A B C D E F G H I J K L M N O P Q R S T U V W X Y Z