Song name
# A B C D E F G H I J K L M N O P Q R S T U V W X Y Z

Joie De Vivre - Vicodin Lite tab

-------------------------------------------------------------------------------
                             VICODIN LITE - Joie De Vivre
-------------------------------------------------------------------------------
Tabbed by:pwdftw
Email: brosenberg570@gmail.com

Tuning:EACGCe (D string down full step, B string up 1/2 step)

Note: This is the version off of the 4-Way split with Empire! Empire!, The
Reptilian, and Annabell. The key to the note duration letter things is at the 
bottom, but it should be fairly self-explanatory.

4/4
85 bpm

(0:00-0:34)
  e e e e e e e e  e e e e e e e e       
e|----------------|--------0-------|
C|--0-------------|----------0-----|
G|----0-------0---|----0-------0---|x6
C|------0---0---0-|--0---0-------0-|   
A|3-------5-------|7---------------|
E|----------------|----------------|

(0:34-0:57)
  ssssssssssssssss sssssssssssssss
e|----------------|---------------|
C|----------------|---------------|
G|----------------|---------------|x4
C|-0-0-0-0-0-0-0-0|-0-0-0-0-0-0-0-|
A|3-3-3-3-5-5-5-5-|7-7-7-7-7-7-7-7|
E|----------------|---------------|

(0:57-1:20)
e|0-0-0-0-0-0-0-0-|0-0-0-0-0-0-0-0-|
C|0-0-0-0-0-0-0-0-|0-0-0-0-0-0-0-0-|
G|0-0-0-0-0-0-0-0-|0-0-0-0-0-0-0-0-|x4
C|0-0-0-0-0-0-0-0-|0-0-0-0-0-0-0-0-|
A|3-3-3-3-5-5-5-5-|7-7-7-7-7-7-7-7-|
E|----------------|----------------|

(1:20-1:42)
  e e   e e e   e  e e e e e e e e
e|0-0---0-0-0---0-|0-0-0-0-0-0-0-0-|
C|0-0---0-0-0---0-|0-0-0-0-0-0-0-0-|
G|0-0---0-0-0---0-|0-0-0-0-0-0-0-0-|x4
C|0-0---0-0-0---0-|0-0-0-0-0-0-0-0-|
A|7-7---7-5-5---5-|3-3-3-3-3-3-3-3-|
E|----------------|----------------|

(1:42-1:53)
  ssssssssssssssss
e|----------------|
C|-0-0-0-0-0-0-0-0|
G|0-0-0-0-0-0-0-0-|x4 
C|----------------|
A|----------------|
E|----------------|

(1:53-end)
One guitar actual keeps playing the last part until the end and the other plays
this:
  e e q  e e q   e e e  s s e  s s e
e|--------------|--------------------|
C|--------------|--------------------|
G|----0------0--|----0---------------|x4 as usual :p
C|--0------0----|--0-----------------|
A|3------5------|7------8h10p8-7h8p7-|
E|--------------|--------------------|

End on:
e|0||
C|0||
G|0||
C|0||
A|3||
E|-||

If you have comments or corrections lemme know :)

************************************

| q   quarter note
| e   eighth note
| s   sixteenth note
| /   slide up
| \   slide down
| h   hammer-on
| p   pull-off
| ~   vibrato
| +   harmonic
| x   Mute note
| b   Bend
| pb  Pre-bend
| br  Bend release
| pbr Pre-bend release
| brb Bend release bend

************************************
Tap to rate this tab
# A B C D E F G H I J K L M N O P Q R S T U V W X Y Z