Song name
# A B C D E F G H I J K L M N O P Q R S T U V W X Y Z

Join The Club - Nobela tab

title           : nobela 
band         :join the club 
tabbed by :juMz (jumar_isla@yahoo.com)

first tabs ko po eto sana magustohan nyu...


intro  E - Abm (2x)
E|----------------------|----------------5/9----------------||
B|--3/6-6--8p6-6p5------|--3/6-6--8p6-5------10--10/12\10\6-||
G|-----------------5----|-----------------------------------||
D|----------------------|-----------------------------------||
A|----------------------|-----------------------------------||
E|----------------------|-----------------------------------||
verse
E|--------------------||
B|--5h6-8----5--6--8--||
G|--------------------||
D|--------------------||
A|--------------------||
E|--------------------||

VERSES: Am7-Em7     D-B
Chorus:A-B-Em7-C#m, A-B-Abm7-C#m

Last stanza: G-A-Dm7-Bm, G-A-F#m7-Bm-G

Verse I VERSES: Am7-Em7,D-B

ngumiti kahit na napipilitan
kahit pa sinasadya
mo akong masaktan paminsan-minsan
bawat sandali na lang

Verse II  Am7-Em7,D-B

tulad mo ba akong nahihirapan
lalot naiisip ka
hindi ko na kaya pa na kalimutan
bawat sandali na lang

Chorus:A-B-Em7-C#m, A-B-Abm7-C#m

at aalis magbabalik
at uuliting sabihin
na mahalin kat sambitin
kahit muling masaktan
sa pag alis akoy magbabalik
at sana naman

Verse III  Am7-Em7,D-B

sa isang marikit na alaalay
pangitaing kay ganda
sana ngay pagbigyan na ng tadhana
bawat sandali na lang

Verse IV Am7-Em7,D-B

sumabay sa biglang pagkabahalat
lumabis ang pagtataka
tunay na pagsintang di alintana
bawat sandali na lang

repeat chorus

solo      D-Em-A7 (2x) G-Gm-D-D7-G-A
 
E|------------------6/8----------------------------||
B|---4-6--6/8--6-4------8--6--8--6-------8-8-9-8---||
G|---------------------------------5-------------5-||( repeat this part twice )
D|-------------------------------------------------||
A|-------------------------------------------------|| 
E|-------------------------------------------------||

                             
E|------------|----------------------|---------------||
B|--------6/8-|--8-9-8-------9/11-8--|-8-8-8-9--11-8-||
G|-8-10-8-----|-------10-8-7---------|---------------||
D|------------|----------------------|---------------||
A|------------|----------------------|---------------||
E|------------|----------------------|---------------||
    

E|---------------|-------------------------------------------||
B|-8-9-11-11/16--|---8-9-8-----------------------------------||
G|---------------|---------10-8-7-8--10/12--10-10--8-7--7-8--||
D|---------------|-------------------------------------------||
A|---------------|-------------------------------------------||
E|---------------|-------------------------------------------||

 Am7-Em7,D-B

ngumiti kahit na napipilitan
kahit pa sinasadya
mo akong masaktan paminsan-minsan
bawat sandali na lang

repeat chorus
Tap to rate this tab
# A B C D E F G H I J K L M N O P Q R S T U V W X Y Z