Song name
# A B C D E F G H I J K L M N O P Q R S T U V W X Y Z

Join The Club - Hayaang Maidlip tab

Title:Hayaang Maidlip
Artist:Join The Club
Album:Nobela

Natutuwa ako sa kantang ito kasi sa mga oras na ito I can relate with the lyrics kaya ginawa ko to ng tab.

Nigelcute69@yahoo.com

Tuning:half step down

Intro/Chorus
Guitar 1
Eb|-------------------------------------------------------|(2x)
Bb|-------------------------------------------------------|
Gb|------------------------------------10-9----9----------|
Db|----10-9-10-----10-9-10-----10-9-10------12---10-------|
Ab|------------10----------12-----------------------------|
Eb|--8----------------------------------------------------|

Guitar 2 (strum)
Eb|-------------------------|(2x)
Bb|-------------------------|
Gb|----5--------------10----|
Db|----5----5----7----10----|
Ab|----3----5----7----8-----|
Eb|---------3----5----------|

Verse
Eb|-------------------------|(2x)
Bb|-------------------------|
Gb|----5--------------10----|
Db|----5----5----7----10----|
Ab|----3----5----7----8-----|
Eb|---------3----5----------|

Pre-Chorus 1
Guitar 1 Palm muted
Eb|------------------------------------------|(2x)
Bb|------------------------------------------|
Gb|----55555555-----------------10101010-----|
Db|----555555555555555577777777710101010-----|
Ab|----333333335555555577777777788888888-----|
Eb|------------33333333555555555-------------|
Basta yung last chord puro 10 yun ha

Guitar 2 on 2nd time
Eb|----------------------------------|
Bb|----------------------------------|
Gb|----5-5x5---------------1010x10----|
Db|-------x---5-5x5--7-7x7-----x------|
Ab|----3-3x3-----x------x---8-8x8-----|
Eb|-----------3-3x3--5-5x5------------|
Then…(strum)
Eb|-------------------------|
Bb|-------------------------|
Gb|-------------------------|
Db|--2----7----3----5-------|
Ab|--2----7----3----5-------|
Eb|--0----5----1----3-------|

“Dahil itong damdamin…”
Eb|-----------------------------------------------------|
Bb|-----------------------------------------------------|
Gb|----13-13x-13-13-13x-13-14-14x-14-14-14x-14-14-14----|
Db|----13-13x-13-13-13x-13-14-14x-14-14-14x-14-14-14----|
Ab|----11-11x-11-11-11x-11-12-12x-12-12-12x-12-12-12----|
Eb|-----------------------------------------------------|
Guitar 1
     . . . . . . . . . . . .
Eb|-----------------------------------|
Bb|-----------------------------------|
Gb|-----------------------------------|
Db|--5-5-5-5-5-5-5-5-5-5-5-5-5-5-5-5--|
Ab|--5-5-5-5-5-5-5-5-5-5-5-5-5-5-5-5--|
Eb|--3-3-3-3-3-3-3-3-3-3-3-3-3-3-3-3--|
Guitar 2
Eb|---------------------|
Bb|---------------------|
Gb|--9h10-12p10-9h10----|
Db|------------------9--|
Ab|---------------------|
Eb|---------------------|

Chorus-do intro
Then…
Guitar 1
Eb|----------|(2x)
Bb|----------|
Gb|----------|
Db|--2----7--|
Ab|--2----7--|
Eb|--0----5--|

Guitar 2
Eb|--7-7h8-7------|(2x)
Bb|----------8----|
Gb|------------9--|
Db|---------------|
Ab|---------------|
Eb|---------------|

Do chorus/intro again

Pre-Verse
Guitar 1 (strum) palm muted
Eb|-----------------------|(2x)
Bb|-----------------------|
Gb|-----------------------|
Db|--10----9----7----9----|
Ab|--10----9----7----9----|
Eb|--8-----7----5----7----|
Guitar 2
Eb|----------------------------------|(2x)
Bb|----------------------------------|
Gb|----------------------------------|
Db|----------------------------------|
Ab|--8h10----8h10----8h10-8-7-7h8-7--|
Eb|----------------------------------|

Verse
Guitar 1 Palm muted
Eb|-------------------------------------------------------|(2x)
Bb|-------------------------------------------------------|
Gb|------------------------------------10-9----9----------|
Db|----10-9-10-----10-9-10-----10-9-10------12---10-------|
Ab|------------10----------12-----------------------------|
Eb|--8----------------------------------------------------|

Guitar 2
Eb|-------------------------|(2x)
Bb|-------------------------|
Gb|----5--------------10----|
Db|----5----5----7----10----|
Ab|----3----5----7----8-----|
Eb|---------3----5----------|

Bridge
Eb|------------------------|(2x)
Bb|------------------------|
Gb|------------------------|
Db|--7----9----10----10-11--|
Ab|--7----9----10----10-11--|
Eb|--5----7----8-----8--9---|

Outro
Eb|----------------------------|
Bb|----------------------------|
Gb|--109--109-1010109--109-----|
Db|------------------------10--|
Ab|--8-7--8-7-8x8x8-7--8-7-10--|
Eb|------------------------8---|


Tap to rate this tab
 
# A B C D E F G H I J K L M N O P Q R S T U V W X Y Z