Song name
# A B C D E F G H I J K L M N O P Q R S T U V W X Y Z

Join The Club - Tinig tab

Tinig(acoustic version) by Join The Club

Tabbed by: troy lumandas
Age: 16y/o
A.k.a: gitarista16
Location: Brgy. Pag-asa San jacinto, Pangasinan
Contact no. : 09202284697
E-add: troy112233l@yahoo.com (friendster.com)(yahoomail.com)

Dedicated para sa mga frends q.. they are my inspiration.. mamimis q kayo after 
para sa lahat ng franciscans sa SJCS para sa inyo e2.. especially pra kina jovic,irish,justine, 
i love you all!!!


Tuning: Half Step Down ( standard mababa ng isang fret)


Chords tab:

   A    E  F#m7 D  A5th E5th F#5th D#5th
e---0---0---2---2----x----x----x-----x-|
B---2---0---2---3----x----x----x-----x-|
G---2---1---2---2----x----9----11----7-|
D---2---2---2---0----7----9----11----7-|
A---x---2---4---x----7----7----9-----5-|
E---x---x---2---x----5----x----x-----x-|


----------------------------------------------------------------------------


Intro:

Guitar 1:

e-----------------------------------| kayo n bahala timing pakinggan
B-----------------------------------| nyo ung kanta (palm mute)
G-----------------777777777777777---|
D-777777777777777-777777777777777---| (2x) then..........
A-777777777777777-555555555555555---|
E-555555555555555-------------------|


Guitar 1: A5th-E5th-F#5th-D#5th

Guitar 2:

e------------------------------------------|
B------9---10---9-----------9---10---9-----|
G-9h11---9----9---9----9h11---9----9---9---|
D------------------------------------------|
A------------------------------------------|  sabay ang guitar 1 and 2 kayo
E------------------------------------------|  bahala na sa timing :)

e------9---10---9-----------9---10---9-----|
B------------------------------------------|
G-9h11---9----9---9----9h11---9----9---9---|
D------------------------------------------|
A------------------------------------------|
E------------------------------------------|


Verse 1:

A
Makikilala ba ang tinig
E
Pag tumawag sa telepono
F#m7                    D
kahapon pang walang sumasagot
A
at kung sakaling sasabihin na
E
Ikaw pa rin sa aking damdamin
F#m7                        D
masilayan nga ba ang ngiti sa iyong mukha

Chorus:

   A            E         F#m7            D
Sabihin... mo sa'kin... kung ayaw mong marinig
   A           E
Ang tinig... ang tinig...
   F#m7            D                     A
Sabihin mo sa'kin kung ayaw mong marinig...


Adlib 1st:

guitar 1:

e----------------------------------|
B-----------------777777777777777--|
G-777777777777777-777777777777777--|
D-777777777777777-555555555555555--| 2x(palm mute)timing play it with guitar 2
A-555555555555555------------------|   below.....
E----------------------------------|

guitar 2:

e----------------------------------|
B----------------------------------|
G--4-6--4-6--4-6--4-6--------------|
D----------------------------------|
A----------------------------------|
E----------------------------------|
                                      2x sabay sa guitar 1 timing nu nlng
e----------------------------------|
B----------------------------------|
G--5-7--5-7--5-7--5-7--------------|
D----------------------------------|
A----------------------------------|
E----------------------------------|

Verse 2:

A                E
pano iiwasan kalimutan kang tawagan
    F#m7                          D
Eh kasi... ayoko nga... walang magagawa
       A
At nagbabasakaling marinig
  E
Lamig, tamis ng iyong tinig...
  F#m7                 D
masilayan nga ba ang ngiti sa iyong mukha

(repeat chorus)


Adlib 2

guitar 1: A5th-D5th (palm mute)

guitar 2:

e--------------------------------------------------------------------|
B--------------------------------------------------------------------|
G--------------------------------------------------------------------|
D---------11--------11----11(11)11(11)11(11)--11h12-11~~-------------|
A-(12)-(12)--(12)(12)--(12)------------------------------------------|
E--------------------------------------------------------------------|

e--------------------------------------------------------------------|
B--------------------------------------------------------------------|
G--------------------------------------------------------------------|
D-(11)11(11)-11h12p11-11~~--11-11--(11)11(11)11(11)-11h12p11--11~~---|
A--------------------------------------------------------------------|
E--------------------------------------------------------------------|

continuation adlib..

guitar 1: A5th-E5th-F#5th-D5th

guitar 2:

e---------------------------------------------------------------------|
B-9---9h10-9-----------------------9---9h10-9-------10/12---12\10-----|
G-9---9----9--9----9/11---7/9------9---9----9--9-----9/11---11\9------|
D---------------------------------------------------------------------|
A---------------------------------------------------------------------|
E---------------------------------------------------------------------|

(repeat chorus) use power chord down stroke fast....

end with A5th

End!..


Legend

( )- harmonic
 h - hammer
 / - slide up
 \ - slide down
 ~ - vibrato
 p - pull
Tap to rate this tab
# A B C D E F G H I J K L M N O P Q R S T U V W X Y Z