Song name
# A B C D E F G H I J K L M N O P Q R S T U V W X Y Z

Join The Club - Nakalimutan Ko Na Bang Magmahal tab

Title: Nakalimutan ko na bang magmahal
Artist: join the club \m/
Tuning: standard
Tabbed: aris

first of all i want to greet the "The Flagpole" yeah! rock on \m/ and the aul school, 
na kung may mali sa tab pero tama yan heheh ^_^!
e2 na>>>

Intro: 			E	     B
	e--------------------------------------||
	B---2-2/7---7-5-4----------------------||
	G------------------4\2/4--6------------||
	D----------------------------4~--------||
	A--------------------------------------||
	E--------------------------------------||

 			E	     B
	e--------------------------------------||
	B---2-2/7---7-5-4----------------------||
	G------------------4\2/4--6--8~--------||
	D--------------------------------------||
	A--------------------------------------||
	E--------------------------------------||


Verse1:
	      E					  B
	Magdamag mag-isang umalis para lang maglibang
		E				    B
	Kung sa bagay nasanay na rin ako sa kalungkutan
	     E					B
	Pahintulot naman sana ay wag kanang maalala
		E			    B
	Dahil ang totoo ako ay manhid na saiyo

Chorus:
		  E		    B
	Nakalimutan ko na bang magmahal
		  E		    B
	Ang kabiguan ko ba ang dahilan
		    E		      B
	Ilang ulit man na ako'y nasaktan
		    A         F#       B
	Ay di mawaglit kahit man sandali

Verse2:
	     E					  B
	Pag-uwi ko ng bahay walang nadatnan sino man
	       E				 B
	Kay bilis pala ng oras't di ko na namalayan
	     E				      B
	May mga bagay na sadyang di ko maunawaan
	       E			      B
	Ang huling paraan talikuran ang nakaraan

(Repeat Chorus)

>>>>>:
	          E			  B
	Pagkat ako'y katulad mong nalulumbay din
	           E			 B
	Na tila di maintindihan kung minsan
	          E		     B
	Wag nang pakita pa itong pagluha
		E		    B
	Ayuko mang lumimot ay kailangan

Ablib:
		     E	      F#m     G#
	e--------------------------------------||
	B------/9-7-/7--545-5/7--545-5/9-------||
	G--5-5---------------------------------||
	D--------------------------------------||
	A--------------------------------------||
	E--------------------------------------||
		     E	      F#m     Eb
	e--------------------------------------||
	B------/9-7-/7--545-5/7--545-5/8-------||
	G--5-5---------------------------------||
	D--------------------------------------||
	A--------------------------------------||
	E--------------------------------------||
		     E	      F#m     G#
	e--------------------------------------||
	B------/9-7-/7--545-5/7--545-5/9-------||
	G--5-5---------------------------------||
	D--------------------------------------||
	A--------------------------------------||
	E--------------------------------------||
		     E	      F#m     Eb
	e--------------------------------------||
	B------/9-7-/7--545-5/7--545-5/8-------||
	G--5-5---------------------------------||
	D--------------------------------------||
	A--------------------------------------||
	E--------------------------------------||

>>>>>:
	          E			  B
	Pagkat ako'y katulad mong nalulumbay din
	           E			 B
	Na tila di maintindihan kung minsan
	          E		     B
	Wag nang pakita pa itong pagluha
		E		    B
	Ayuko mang lumimot ay kailangan

(Repeat Chorus) 3x

	Nakalimutan....
Tap to rate this tab
# A B C D E F G H I J K L M N O P Q R S T U V W X Y Z