Song name
# A B C D E F G H I J K L M N O P Q R S T U V W X Y Z

Join The Club - Tinig Live tab

Title: Tinig (Live)
Artist: Join The Club

                  This is the new song of Join The Club
                        PLease support this song..
                      OPM AUTHORITY RULES!


Intro:

e-------------------------------------------------------|
B-------------------------------------------------------|
G------555-444-5-7-------555-444-5-7--------------------|    2x
D--555-555-444-5-7---555-555-444-5-7--------------------|
A--555-333-222-3-5---555-333-222-3-5--------------------|
E--333---------------333--------------------------------|

Guitar 2:

e---------------------------------.
B---------------------------------.
G--999-111-111111--11/11\11\9\7---.    2x
D--xxx-xxx-xxxxxx--x-/-x\x-\x\x---.
A--777-999-101010--9-/10\9-\7\5---.
E---------------------------------.


Verse 1:

e-----------------|------------|
B-----------------|------------|
G------555-444-5-7|777-555-----|
D--555-555-444-5-7|777-555-----|
A--555-333-222-3-5|555-333-----|
E--333------------|------------|


e--------------------------------|
B--------------------------------|
G------555-999-777-555-4s5s4-----|
D--555-555-999-777-555-4s5s4-----|
A--555-333-777-555-333-2s3s2-----|
E--333---------------------------|


Chorus:

e---------------------|--------------------------|
B---------------------|--------------------------|
G------555-999-777-555|-----------999-777-555----|
D--555-555-999-777-555|-555-444---999-777-555----|
A--555-333-777-555-333|-555-444---777-555-333----|
E--333----------------|-333-222------------------|


Lyrics:

Verse I:

Makikilala ba ang tinig
Pag tumawag sa teleponong
Kahapon pa walang sumasagot
At kung sakaling sasabihin na
Ikaw pa rin sa aking damdamin
Masilayan nga ba ang ngiti sa iyong mukha

Chorus:

Sabihin...mo sa'kin...kung ayaw mong marinig..
Ang tinig....ang tinig.....
Sabihin mo sa'kin kung ayaw mong marinig...

Verse II:

Pa'no iiwasan kalimutan kang tawagan
Eh kasi..ayoko nga...walang magagawa...
At nag baka sakaling marinig
Lamig tamis ng iyong tinig...
Masilayan nga ba ang ngiti sa 'yong mukha...

Chorus:

Sabihin...mo sa'kin...kung ayaw mong marinig..
Ang tinig....ang tinig.....
Sabihin mo sa'kin kung ayaw mong marinig...
(Repeat Chorus)
Tap to rate this tab
# A B C D E F G H I J K L M N O P Q R S T U V W X Y Z