Song name
# A B C D E F G H I J K L M N O P Q R S T U V W X Y Z

Jojo - Disaster tab

DISASTER by JoJo

* this is my first tab so i apologize 
if the tabs/chords or lyrics are wrong 
-it sounds quite accurate to me *
   
[capo on 1st]
/ = slide
D = strum Down  
U = strum Up


[little intro] play 2x
|---------------------------------------------|
|---------------------------------------------|
|-------0----------0---------0---------0------|
|------0-0-0------0-0-0-----0-0-0-----0-0-0---|
|---2-----2---/3-----3---------0---------0----|
|------------------------3---------3----------|
   
[verse 1] play 4x
|---------------------------------------------|
|---------------------------------------------|
|-------0----------0---------0---------0------|
|------0-0-0------0-0-0-----0-0-0-----0-0-0---|
|---2-----2---/3-----3---------0---------0----|
|------------------------3---------3----------|
   
   

strumming pattern: ( D DU UDU )
[chorus] play 4x

|----0----3----3----2-----|
|----1----3----3----3-----|
|----0----0----0----2-----|
|----2----0----2----0-----|
|----3----2----2----X-----|
|----X----3----0----X-----|


[verse 2] play 5x
|---------------------------------------------|
|---------------------------------------------|
|-------0----------0---------0---------0------|
|------0-0-0------0-0-0-----0-0-0-----0-0-0---|
|---2-----2---/3-----3---------0---------0----|
|------------------------3---------3----------|


strumming pattern: ( D DU UDU )
play until end of song
[chorus & verse 3] ~play gently for verse~ 

|----0----3----3----2-----|
|----1----3----3----3-----|
|----0----0----0----2-----|
|----2----0----2----0-----|
|----3----2----2----X-----|
|----X----3----0----X-----|



Lyrics:

[Verse 1]
I'm trying not to pretend 
that it won't happen 
again and again like that
Never thought it would end, 
'cause you got up in my head 
in my head like that
You made me happy baby, 
love is crazy, so amazing
But it's changing, rearranging
I don't think I can take anymore

[Chorus]
'Cause the walls burned up 
And our love fell down
And it turned into whatever
now we're saying never
Feel the fire 'cause it's all around 
and it's burning
For forever and always
We gotta let it go, be on our way
Look for another day, 
'cause it ain't the same my baby
Watch it all falling to the ground
No happy ever after, 
just disaster


[Verse 2]
ohhh...
I Didn't want it this way, 
I only wanted to say
I loved you right
But now you're walking away 
you're leaving me here to stay, 
so foolish of me to wait for you to realize
All the things I gave you, 
made you, changed you
Your dreams came true
When I met you, 
now forget you
Don't want anymore...

[Chorus]
'Cause the walls burned up 
when our love fell down
And it turned into whatever
now we're saying never
Feel the fire 'cause it's all around 
and it's burning
For forever and always
We gotta let it go, be on our way
Look for another day, 
'cause it ain't the same my baby
Watch it all falling to the ground
No happy ever after, 
just disaster

[Verse 3]
You shot the bullet 
you shot the bullet that killed me
Not feeling my heart beat, 
and I was dying
I've been through it, 
I-I've been through all the agony
And now my eyes are drying, 
trying, no more crying,
Lying is just a game,
So disaster strikes and I'm all right 
cause my loves on his way..
Yeahh...
Burning up for forever and always (always)
Yeahh...

[Chorus]
'Cause the walls burned up 
And our love fell down 
And it turned into whatever
now we're saying never
Feel the fire 'cause it's all around 
and it's burning
For forever and always
We gotta let it go, be on our way
Look for another day, 
'cause it ain't the same my baby
Watch it all falling to the ground
No happy ever after, 
just disaster

[Chorus]
'Cause the walls burned up 
And our love fell down
And it turned into whatever
now we're saying never
Feel the fire 'cause it's all around 
and it's burning
For forever and always
We gotta let it go, be on our way
Look for another day, 
'cause it ain't the same my baby
Watch it all falling to the ground
No happy ever after, 
just disaster (just disaster)
whoa..  
We're burning up for forever and always
(always)
yeahh...
Tap to rate this tab
 
# A B C D E F G H I J K L M N O P Q R S T U V W X Y Z