Song name
# A B C D E F G H I J K L M N O P Q R S T U V W X Y Z

Jokke Med Tourettes - Tomgang tab

Highlighted       Show chord diagrams
Denne tar jeg ikke noe av æren for. Takk til Jørgen som laga den!
Si fra om noe kan forbedres: grunern@hotmail.com

Jokke Med Tourettes - Tomgang

A                    E       A
   Sola skinner men vintern kommer
  A             E        A
 Der ute er det slutt på sommern
 A                    D            E
 To fulle menn ække fullt så fulle lenger
 A                      E              A
 Men dem har aldri hatt bedre bruk for penger


  H                    G             D         A
 Jeg subber videre her kommer høsten i all sin tyngde
  H                  E                   G                 Gb
 Kanskje er jeg ikke en av gutta men jeg ække no hypp på å synge
  H                G         D         A
 Noe særlig mer om alle mine perfekte dager
  H              E            G               E
 Jeg hakke så forbanna mange igjen av dem på lager
  G                E
 Perfekte dager på lager lenger

Refreng:
|---------------------------------------|
|---------------------------------------|
|------------5--------------7----5------|
|-2----------5--------------7----5------|
|-2----------3--------------5----3------|
|-0--3---5-------5---3--5---------------|
 Jeg går på tom-gang ba-by yeah yeah

|-----------------------------------------|
|-----------------------------------------|
|------------5----------------------------|
|-2----------5-------------5-5-----5---2--|
|-2----------3-------------5-5-----5---2--|
|-0--3---5---------5-3-5---3-3--5--3---0--|
Tap to rate this tab
 
# A B C D E F G H I J K L M N O P Q R S T U V W X Y Z