Song name
# A B C D E F G H I J K L M N O P Q R S T U V W X Y Z

Jokke Med Tourettes - To Trtte Typer tab

Jokke med Tourettes - To trøtte typer


(intro fram til soloen før "nå tror jeg tida er inne")

    E5   F#5  E5  G5  E5         F#5  E5  A5   E5   F#5 E5 G5 E5 A5
----------------------------------------------------------------------------|
----------------------------------------------------------------------------|
---------------------------------------------------------------------7------|
--2-2---4----2---5---2----2-2---4----2---7---2-2---4---2---5---2---7-7--2---|
--2-2---4----2---5---2----2-2---4----2---7---2-2---4---2---5---2---7-5--2---|
--0-0---2----0---3---0----0-0---2----0---5---0-0---2---0---3---0---5----0---|

er ikke siker på hvor mange ganger han spiller introen før han går over på neste.


A5  G5  C5  D5
-5---3---3---3---|
-5---3---3---3---|
-5---3---5---7---|
-7---5---5---7---|
-7---5---3---5---|
-5---3-----------|


A5             G5               C5              D5         A5
Nanana nana nanana nananana nanana nanana nana nanan anananaaa


hvor mange ganger de forskjellige delene skal spilles får dere finne ut selv;)


Er fetteren min Daniel som skal ha æren for å ha funnet ut denne her.. Jeg bare tok meg 
til å skrive den ned..
Tap to rate this tab
# A B C D E F G H I J K L M N O P Q R S T U V W X Y Z