Song name
# A B C D E F G H I J K L M N O P Q R S T U V W X Y Z

Jokke Og Valentinerene - Annie tab

-------------------------------------------------------------------------------
			     Annie - Jokke og Valentinerene	
-------------------------------------------------------------------------------
Tabbed by:Espen Rian Skog	
Email:espenskog@gmail.com	

Tuning:EADGBe(standard)

Intro Riff:
 F          C  D      F         C  D            F       C D
e|-1-1-1-------2------1-1-1--------2------------1-1-1-----3------------------|
B|-1-1-1----1--3------1-1-1-----1--3---3-1-3----1-1-1---1-2------------------|
G|-2-2-2----0--2------2-2-2-----0--2---------2--2-2-2---0-3------------------|
D|-3-3-3--2-2--0------3-3-3-2---2--0------------3-3-3-2-2-0------------------|
A|-3-3-3----3---------3-3-3-----3---------------3-3-3---3--------------------|
E|-1-1-1--------------1-1-1---------------------1-1-1------------------------|


Verse Riff:
   G    C          D
e|-3-------------------------------------------------------------------------|
B|-3-------------------------------------------------------------------------|
G|-0---4/5-5-5-5--7-7--------------------------------------------------------|
D|-0---4/5-5-5-5--7-7--------------------------------------------------------|
A|-2---2/3-3-3-3--5-5--------------------------------------------------------|
E|-3-------------------------------------------------------------------------|

Chorus Riff:
    D             G       C
e|--2-2-----------3-------2--------------------------------------------------|
B|--3-3-----------3--1----3--------------------------------------------------|
G|--2-2-----------0--0----2--------------------------------------------------|
D|--0-0--0--------0--2----0--------------------------------------------------|
A|----------3-2---2--3-0-----------------------------------------------------|
E|--------------3-3----------------------------------------------------------|
    D            G   A     D
e|--2-2----------3---------2-------------------------------------------------|
B|--3-3----------3---2-----3-------------------------------------------------|
G|--2-2----------0---2-----2-------------------------------------------------|
D|--0-0--0-------0---2-----0-------------------------------------------------|
A|---------3-2---2---0--4----------------------------------------------------|
E|-------------3-3-----------------------------------------------------------|

    D             G       C
e|--2-2-----------3-------2--------------------------------------------------|
B|--3-3-----------3--1----3--------------------------------------------------|
G|--2-2-----------0--0----2--------------------------------------------------|
D|--0-0--0--------0--2----0--------------------------------------------------|
A|----------3-2---2--3-0-----------------------------------------------------|
E|--------------3-3----------------------------------------------------------|

Bridge:

A D + Intro Riff

Solo:
Verse Chords (G C D)


G                             C D
Jeg sitter her og kjeder meg
G                             C D
Det er på tide å bevege seg
G                               C D
Ut på kjøkkenet og hente en til
G                                  C D
Drikke til jeg stuper hvis jeg vil


D                 G             C       D               
Annie, hvor er du nå har du no’ sted å gå
D                 G                  A       D
Annie, kommer du hjem, hit til din egen seng
D                 G                 C      D
Annie, hvor er du nå, hva er det du tenker på


Alle folka hun er kjeder meg (kjeder meg, de kjeder meg)
Jeg er sikkert like gørr som dem (kjeder meg, jeg kjeder meg)
Ingen grunner til å glede seg (glede seg, glede seg)
Ingen grunner til å komme seg hjem (det er ingen hjemme, ingen hjemme)
Annie, hvor er du nå har du no’ sted å gå
Annie, kommer du hjem, hit til din egen seng
Annie, hvor er du nå, hva er det du tenker på

A                     D D/C D/B D
Alle mine drømmer går i knas
A                     Intro Riff
Alle våre planer bare fjas

Hva er det egentlig jeg ser i deg (ser i deg, ser i deg)
Du veit jeg hater alle dine venner (kjeder meg, de kjeder meg)
Hva var det egentlig du så i meg (så i meg, så i meg)
Vi har aldri hatt en dritt til felles (jeg er bare glad jeg er kvitt deg)

Annie, hvor er du nå har du no’ sted å gå
Annie, nå kommer du hjem, hit til din egen seng
Annie, hvor er du nå, hva er det du tenker på

Alle mine løfter bare løgn, løgn, løgn, løgn
Jeg angrer mine tabber bare gi meg en sjanse til
Jeg lover å være snill
Gi meg en sjanse til

Annie, hvor er du nå har du no’ sted å gå
Annie, nå kommer du hjem, hit til din egen seng
Annie, hvor er du nå, hva er det du tenker på

Alle mine drømmer går i knas
Alle våre planer bare gi meg en sjanse til
Jeg lover å være snill
Gi meg en sjanse til 


Lyrics from www.jokke.nu


| /  slide up
| \  slide down
| h  hammer-on
| p  pull-off
| ~  vibrato
| +  harmonic
| x  Mute note
===============================================================================
Tap to rate this tab
 
# A B C D E F G H I J K L M N O P Q R S T U V W X Y Z