Song name
# A B C D E F G H I J K L M N O P Q R S T U V W X Y Z

Jokke Og Valentinerene - Sitter Paa En Bombe tab

e|---------------------------------------------------------------|
B|---------------------------------------------------------------|
G|--------------9h10-12-12v--12b/r-10-10--10-10-10-10-10p9-------|
D|--10--10-10h12------------------------------------------12-10v-|
A|---------------------------------------------------------------|
E|---------------------------------------------------------------|

e|---------------------------------------------------------------|
B|---------------------------------------------------------------|
G|--------------9h10-12-12v--12b/r-10-10--10-10-10-10-10p9-------|
D|--10--10-10h12------------------------------------------12-----|
A|---------------------------------------------------------------|
E|---------------------------------------------------------------|

e|-----------------------------------------------------------------|
B|-----------------------------------------------------------------|
G|----------11h12-12-12v-12b/r-----------11h12-12-12v--12b/r-10-10v|
D|--12-12h14------------------12-12-12h14--------------------------|
A|-----------------------------------------------------------------|
E|-----------------------------------------------------------------|

e|------------------------------|
B|------------------------------|
G|--10-9-9--9b/r----------------|
D|---------------12---12b/r-10--|
A|------------------------------|
E|------------------------------|
Tap to rate this tab
 
# A B C D E F G H I J K L M N O P Q R S T U V W X Y Z