Guitaretab - guitar tabs
Song name
# A B C D E F G H I J K L M N O P Q R S T U V W X Y Z

Jokke Og Valentinerene - Sola Skinner tab

-------------------------------------------------------------------------------
			     Sola skinner - Jokke og valentinerene
-------------------------------------------------------------------------------
Tabbed by:Espen Rian Skog
Email:Espenskog@gmail.com

Tuning:EADGBE(Standard)

Intro: Riff 1. Simple riff later used as a fill... you could replace it with any E-chord

(You might want to mute the lower strings to get a more punk'd sound.)
         
e|-0-0-0-0--0-0-0-0--0-0-0-0--0-0-0-0----------------------------------------|
B|-0-0-0-0--0-0-0-0--0-0-0-0--3-3-3-3----------------------------------------|
G|-1-1-1-1--1-1-1-1--1-1-1-1--1-1-1-1----------------------------------------|
D|-2-2-2-2--2-2-2-2--2-2-2-2--2-2-2-2----------------------------------------|
A|-2-2-2-2--2-2-2-2--2-2-2-2--2-2-2-2----------------------------------------|
E|-0-0-0-0--4-4-4-4-----------0-0-0-0----------------------------------------| x2


Riff 2.

Play this once then pt.1 one more time.

e|---------------------------------------------------------------------------|
B|---------------------------------------------------------------------------|
G|-7-6---6---7-7-6---7-7-6---6---7-7-6---7-6---7-7-6---6---------------------|
D|-----7---7-------7-------7---7-------7-----7-------7-----------------------|
A|---------------------------------------------------------------------------|
E|---------------------------------------------------------------------------|


Riff 3.

This is a part of the chorus, the "neineneneinenenei" part. 
[ Tab from: http://www.guitaretab.com/j/jokke-og-valentinerene/58618.html ]
If you want you can replace it with any D-chord
e|---------------------------------------------------------------------------|
B|---------------------------------------------------------------------------|
G|-6/7--7-7--6/7--7-7-6/7--7-7--7-7------------------------------------------|
D|-6/7--7-7--6/7--7-7-6/7--7-7--7-7------------------------------------------|
A|-4/5--5-5--4/5--5-5-4/5--5-5--5-5------------------------------------------|
E|---------------------------------------------------------------------------|

A             
Sola skinner og jeg er så glad
D
Det er fordi jeg treffer deg i dag
A                              Riff.1(E)
Sola skinner og jeg er så glad

A        
Jeg har med pils og jeg har med prince
D
Og alle prevensjoner som finnes
A                                        Riff.1(E) 
Jeg har med pils og jeg har med prince i dag

F#m              E                  Riff 3.(D)  
Jeg husker da vi møttes for første gang
F#m              E                  Riff 3.(D)
Det var sol og sommer og fuglene sang
           A       E                A     E
Og jeg var full av dritt, og du var drita full
           A      E      D    
og det var kjærlighet ved første...

A     
na na na na na na na na na
D
na na na na na na na na na
A                                    Riff.1(E)
na na na na na na na na na na na.....

A
To i lag og en sommerdag
D
Vi sleiker sol og vi tar oss et bad
A                                   Riff.1(E)
Og to i lag og en sommerdag, det er fint
A
Og etterpå går vi hjem til deg
D
Du kler av meg og jeg kler av deg
A                              Riff.1(E)
Og etterpå går vi hjem til deg
F#m              E            Riff 3.(D)
La alltid en jente sjekke deg
F#m              E                  Riff 3.(D)
Det er mye enklere spør du meg
 
           A       E                A     E
Og jeg var full av dritt, og du var drita full
           A      E      D
og det var kjærlighet ved første....
A
na na na na na na na na na
D
na na na na na na na na na
A
na na na na na na na na na na na..... osv

Thats it. Good luck.

Lyrics from www.jokke.nu

| /  slide up
| \  slide down
| h  hammer-on
| p  pull-off
| ~  vibrato
| +  harmonic
| x  Mute note
===============================================================================
Related for Sola Skinner tab
Advertisement will be closed in 10 seconds