Song name
# A B C D E F G H I J K L M N O P Q R S T U V W X Y Z

Jokke Og Valentinerene - Selvmedlidenhet Er En Synd tab

Tabbed by:Glenn-Thore
Mail.....:gtbf_89@hotmail.com

This is my first tab so PLEASE rate it...

|------------------------|
|------------------------|
|--------------------8-7-|
|--10-7-10-7-10-7-10-8-7-|
|--10-7-10-7-10-7-10-6-5-|
|--8 -5-8 -5-8 -5-8 -----|

|-------------------|
|-------------------|
|-------------------|
|--10-7-10-7-8-7-6-5|
|--10-7-10-7-8-7-6-5|
|--8 -5-8 -5-6-5-4-3|


F                   C             
Alle går rundt og klager for tida,
D                 A G F
mere enn på mange å-å-år
F               C
Var det så mye bedre før,
        D                     Am
spør du meg så er det noe som går

       Am             G        F
Og det smitter av på alle oss andre
       Am         G      F
Alltid noe eller noen å klandre
       Am            G      F
Alt du trenger er en dårlig grunn,
    Am           G         F
men selvmedlidenhet er en synd
Tap to rate this tab
# A B C D E F G H I J K L M N O P Q R S T U V W X Y Z