Song name
# A B C D E F G H I J K L M N O P Q R S T U V W X Y Z

Jolie Holland - Old Fashioned Morphine tab

Intro:
----------0-0-0-|----------0-0-0-|----------0-0-0-|----------0-0-0-|
----------1-1-1-|----------1-1-1-|----------1-1-1-|----------1-1-1-|
----------2-2-2-|----------2-2-2-|----------2-2-2-|----------2-2-2-|
----------2-2-2-|----------2-2-2-|----------2-2-2-|----------2-2-2-|
--------0-------|--------0-------|--------0-------|--------0-------|
0---3-----------|0---3-----------|0---3-----------|0---3-----------|



The rest of the song goes like this:

--0-0-0---0-0-0-|--0-0-0---0-0-0-|--0-0-0---0-0-0-|--0-0-0---0-0-0-|
--1-1-1---1-1-1-|--1-1-1---1-1-1-|--0-0-0---0-0-0-|--0-0-0---0-0-0-|
--2-2-2---2-2-2-|--2-2-2---2-2-2-|--1-1-1---1-1-1-|--1-1-1---1-1-1-|
--2-2-2---2-2-2-|--2-2-2---2-2-2-|--2-2-2---2-2-2-|--2-2-2---2-2-2-|
0---------------|0---------------|--------2-------|--------2-------|
--------0-------|--------0-------|0---------------|0---------------|


--0-0-0---0-0-0-|--0-0-0---0-0-0-|--1-1-1---0-0-0-|--0-0-0---0-0-0-|
--1-1-1---1-1-1-|--1-1-1---1-1-1-|--3-3-3---0-0-0-|--1-1-1---1-1-1-|
--2-2-2---2-2-2-|--2-2-2---2-2-2-|--2-2-2---1-1-1-|--2-2-2---2-2-2-|
--2-2-2---2-2-2-|--2-2-2---2-2-2-|0---------2-2-2-|--2-2-2---2-2-2-|
0---------------|0---------------|----------------|0---------------|
--------0-------|--------0-------|--------0-------|--------0-------|
          
Tap to rate this tab
# A B C D E F G H I J K L M N O P Q R S T U V W X Y Z