Song name
# A B C D E F G H I J K L M N O P Q R S T U V W X Y Z

Jon And Roy - The Right Groove tab


-------------------------------------------------------------------------------
		      The Right Groove - Jon and Roy
-------------------------------------------------------------------------------
Tabbed by:sokrdz
Email:sokrdz@comcast.net
ALright well here is my first tab every and got this down from watching the video on 
of Jon playing the right groove. hes pretty tight.

http://www.youtube.com/watch?v=AD-2vdzV1w0
watch the video to get the actual details i am not very good at putting them in on the tab..

Tuning:EADGBE

e|---5-----5----4-----4---------------4---------|
B|---5-----5----5-----5---------------5---------|
G|---6-----6----6-----6----2-----2----6---------|
D|---7-----7----6-----6----4-----4----6---------|x8
A|---7-7-7-7--4-4-4-4-4----4-4-4-4--4-4-4-4-4---|
E|-5-5-----5----4-----4--2-2-----2----4---------|

e|---5-----5----5-----5---4-----4--------------5-----5----5-----5----5-----5-----|
B|---5-----5----5-----5---5-----5--------------5-----5----5-----5----5-----5-----|
G|---7-----7----6-----6---6-----6---2-----2----7-----7----6-----6----6-----6---1-|
D|---7-----7----7-----7---6-----6---4-----4----7-----7----7-----7----7-----7---2-|
A|-5-5-5-5-5----7-7-7-7-4-4-4-4-4---4-4-4-4--5-5-5-5-5----7-7-7-7----7-7-7-7---2-|
E|---5-----5--5-5-----5---4-----4-2-2-----2----5-----5--5-5-----5--5-5-----5---0-|

e|---5-----5----4-----4---------------4---------|
B|---5-----5----5-----5---------------5---------|
G|---6-----6----6-----6----2-----2----6---------|
D|---7-----7----6-----6----4-----4----6---------|
A|---7-7-7-7--4-4-4-4-4----4-4-4-4--4-4-4-4-4---|
E|-5-5-----5----4-----4--2-2-----2----4---------|

e|---5-----5----4-----4---------------4----------|
B|---5-----5----5-----5---------------5----------|
G|---6-----6----6-----6----2-----2----6---1------|
D|---7-----7----6-----6----4-----4----6---2------|THE RIGHT GROOOVE YES...
A|---7-7-7-7--4-4-4-4-4----4-4-4-4--4-4---2------|
E|-5-5-----5----4-----4--2-2-----2----4---0------|


http://www.jonandroy.ca/
Tap to rate this tab
# A B C D E F G H I J K L M N O P Q R S T U V W X Y Z