Song name
# A B C D E F G H I J K L M N O P Q R S T U V W X Y Z

Jon And Roy - Tavern Song tab

    Ok, so i looked through this site and there was no tab for this song. it is
fingerpicking, except for the breaks. i use a thumb pick to play it most of the time, but
sometimes i do it all finger picking. this song may look complicated at first, but once 
u get the feel of it, its not that hard.


                                                          TAVERN SONG
                                                           JON AND ROY

 main riff:
      Am                               C                                                 
             E7
e|--------------0------|-------0h1------------0---------|----------------0--------|
B|----------------1----|--------------------------------|---------3----3---3------|
G|--------2---------2--|--------------0-------------0--|------------0--------0----|
D|-----2---------------|------------2-------------2----|--------------------------|
A|--0------------------|-------0--------------3--------|--------------------------|
E|---------------------|--------------------------------|--------0----------------|


    E+
e|----------------------------------|
B|--1-----1----0--------------------|
G|------1-----------2-1x-1-2--------|     repeat as many times as you feel like.
D|----------------------------------|
A|----------------------------------|
E|--0----------0--------------------|

Break 1:
    Am                                                            E
e|-0-----1--3--1--0h1p0-----0------|--0--------------------------------------|
B|-1----------------------3---3--1-|---0----1--3--1--0h1p0----0----------------|
G|-2--xfive-------------------------|---1---------------------2---2-1----------|
D|-2-------------------------------|---2-xfive---------------------------------|xeight
A|-0-------------------------------|---2---------------------------------------|
E|-0-------------------------------|---0---------------------------------------|

do main riff again about 8 times

break 2:

do break 1 twice then:

    Am                                                    E
e|-0----------------------------|-0-------------------------|
B|-1----------------------------|-0-------------------------|
G|-2-xfive-2--4--2--1h2p1-----1-|-1-xfive-------------------|
D|-2-------------------3---3-2-|-2--------------------------|  then do break 1 once more
A|-0----------------------------|-2--2-3--2-0--2-2-3--------|
E|-0----------------------------|-0-------------------------|


then riff 2:

    Am                  C                    G                Em
e|----------------------------------------------|
B|-------1--1--------1-1---------0--------0-----|
G|-------2--2--------0-0---------0--------0-----|  repeat lots
D|----------------------------------------------|
A|--0--------------3----------------------------|
E|----------------------------3---------0-------|
Tap to rate this tab
 
# A B C D E F G H I J K L M N O P Q R S T U V W X Y Z