Guitaretab - guitar tabs
Song name
# A B C D E F G H I J K L M N O P Q R S T U V W X Y Z

Jon Brion - Elephant Parade tab

-------------------------------------------------------------------------------
			     Elephant Parade  Jon Brion
-------------------------------------------------------------------------------
Tabbed by: Anthony Nicaj (ant5111)
Email: an3@geneseo.edu

Very open to suggestions.  

Tuning: Standard
[ Tab from: http://www.guitaretab.com/j/jon-brion/102005.html ]
e|---------------------------------------------------------------------------|
B|-----0-------------0-------------0-------------0---------------------------|
G|---------1-------------0-------------2-------------2-----------------------|
D|-------------2---2---2---2-2-------------4-------------4-------------------| X2
A|---2---2---2---0---------------4---4---4-----4---4---4---------------------|
E|-0---------------------------2-------------2-------------------------------|

e|---------------------0-------------------4p0-------------------------------|
B|-------0---------------------0---------------------------------------------|
G|---------1---1-----1-------1-----------------------------------------------|
D|-----2-----2-----2-------2-------------------------------------------------|
A|---------------4-------2---------------------------------------------------|
E|-2/4-----------------------------------------------------------------------|

| /  slide up
| \  slide down
| h  hammer-on
| p  pull-off
| ~  vibrato
| +  harmonic
| x  Mute note
===============================================================================
Related for Elephant Parade tab