Song name
# A B C D E F G H I J K L M N O P Q R S T U V W X Y Z

Jon Brion - Phone Call tab

first tab 

From The Eternal Sunshine Of The Spotless Mind 
tuning is half step down (Eb, Ab, Db, Gb, Bb, Eb)


Eb|------2-5-2---2----|   |--------5----------|
Bb|----3-------3---3--|   |----3-7---7-3-7-3--|
Gb|----4-------4---4--|   |----6-------6---6--|
Db|--0-0-------0---0--|   |--0-0-------0---0--|
Ab|-------------------|   |-------------------|
Eb|-------------------|x3 |-------------------|

that's played three times, then it's

|----------8---------|  |--------5--------|
|--------8---8---8---|  |----5-8---8-5-8--|
|------9-------9---9-|  |----5-------5----|
|-----10------10--10-|  |--7-7-------7----|
|--10-10------10--10-|  |-----------------|
|--------------------|x2|-----------------|x2

then back to the beginning riffs three times

then


Eb|------2-5-2---2----|
Bb|----3-------3---3--|
Gb|----4-------4---4--|
Db|--0-0-------0---0--|
Ab|-------------------|
Eb|-------------------|

fade out



enjoy =)
Tap to rate this tab
# A B C D E F G H I J K L M N O P Q R S T U V W X Y Z