Song name
# A B C D E F G H I J K L M N O P Q R S T U V W X Y Z

Jon Brion - Phone Call tab

For Chelsea

-----------
Phone Call
Jon Brion
-----------

From the Eternal Sunshine of the Spotless Mind Soundtrack.


Tuning:
=======
Dropped D, 1/2 step down. I chose this because you can
alternate using the higher Db or the lower Db depending
on what you like.


=================*NOTE*===============================
This was what I had tabbed out for an acoustic guitar.

There will be some variations, and NB that it probably won't
Sound as break-taking as the recorded version because the odds
that you have an epic orchestra with you and/or the effects for
the song are quite low (most days).
======================================================


eb------5-----------5-----------5-----------5-----|
Bb-----7-7-7-------7-7-7-------7-7-7-------5-5-5--|
Gb----7---7-7-----7---7-7-----7---7-7-----7---7-7-|
Db---0-----------0-----------0-----------0--------|
Ab------------------------------------------------|
Db------------------------------------------------| x3

eb------8-----------8-----------7-----------5-----|
Bb-----8-8-8-------8-8-8-------8-8-8-------8-8-8--|
Gb----9---9-9-----9---9-9-----9---9-9-----9---9-9-|
Db--10----------10-----------9-----------9--------|
Ab------------------------------------------------|
Db------------------------------------------------|

eb------5-----------5-----------5-----------5-----|
Bb-----7-7-7-------7-7-7-------7-7-7-------5-5-5--|
Gb----7---7-7-----7---7-7-----7---7-7-----7---7-7-|
Db---0-----------0-----------0-----------0--------|
Ab------------------------------------------------|
Db------------------------------------------------|


I love this movie.
I love this song.
I love those moments.

Hope this helps,

Cory
Tap to rate this tab
 
# A B C D E F G H I J K L M N O P Q R S T U V W X Y Z