Song name
# A B C D E F G H I J K L M N O P Q R S T U V W X Y Z

Jon Brion - Phone Call tab

-------------------------------------------------------------------------------
                             PHONE CALL - Jon Brion
-------------------------------------------------------------------------------
Tabbed by: Robert Humphrey
E-mail: roberth9100@gmail.com

Tuning: Standard

This piece consists of two guitars played over the top of one another.

Guitar One

Main theme:
e|-------2---------------2---------------2---------------4-------------------|
B|-----2---2---2-------2---2---2-------2---2---2-------4---4---4-------------|
G|---3-------3---3---3-------3---3---3-------3---3---5-------5---5-----------|
D|---------------------------------------------------------------------------|
A|---------------------------------------------------------------------------|
E|-2---------------2---------------2---------------4-------------------------|

Bridge:
e|-------7---------------7---------------4---------------4-------------------|
B|-----7---7---7-------7---7---7-------4---4---4-------4---4---4-------------|
G|---8-------8---8---8-------8---8---4-------4---4---4-------4---4-----------|
D|---------------------------------------------------------------------------|
A|---------------------------------------------------------------------------|
E|-7---------------7---------------4---------------4-------------------------|


Guitar Two

Main theme:
e|-------4---------------4---------------4---------------4-------------------|
B|-----6---6---6-------6---6---6-------6---6---6-------6---6---6-------------|
G|---6-------6---6---6-------6---6---6-------6---6---6-------6---6-----------|
D|---------------------------------------------------------------------------|
A|-4---------------4---------------4---------------4-------------------------|
E|---------------------------------------------------------------------------|

Bridge:
e|-------2---------------2---------------6---------------6-------------------|
B|-----4---4---4-------4---4---4-------7---7---7-------7---7---7-------------|
G|---3-------3---3---3-------3---3---8-------8---8---8-------8---8-----------|
D|---------------------------------------------------------------------------|
A|-2---------------2---------------6----------------6------------------------|
E|---------------------------------------------------------------------------|

************************************

| /   slide up
| \   slide down
| h   hammer-on
| p   pull-off
| ~   vibrato
| +   harmonic
| x   Mute note
| b   Bend
| pb  Pre-bend
| br  Bend release
| pbr Pre-bend release
| brb Bend release bend

************************************
Tap to rate this tab
 
# A B C D E F G H I J K L M N O P Q R S T U V W X Y Z