Song name
# A B C D E F G H I J K L M N O P Q R S T U V W X Y Z

Jon English - Six Ribbons tab

E]--------------0-------------------------------------|
B]----0-1-0---3---3-1-0---0-1-0-----------0-----------|
G]---2------0-----------0-------2-0---0-2---0--2------|  x2
D]-2--------------------------------2-----------------|
A]----------------------------------------------------|
E]----------------------------------------------------|


E]-----0----------------------------------------------|
B]-1-3---3-1-0---0-1-0-----------0-----------0--------|
G]-------------0-------2-0---0-2---2-0---0-2---0-2----|
D]-------------------------2-----------2--------------|
A]----------------------------------------------------|
E]----------------------------------------------------|

E]-3-0---3-0---5-3-0-------0--------------------------|
B]-----1-----1-------1-1-3---3-1-0---0-1-3-0----------|
G]---------------------------------0---------0--------|
D]----------------------------------------------------|
A]----------------------------------------------------|
E]----------------------------------------------------|
Tap to rate this tab
# A B C D E F G H I J K L M N O P Q R S T U V W X Y Z